PrimaNota.ru - самый крупный в мире бесплатный архив песенных текстов, аккордов, табулатур и нот


Sungha Jung - Make You Feel My Love - таба, видео

Регистрация Запомнить меня
Войти через:  Facebook Google Twitter Vk Yandex Mail.ru

Sungha Jung - Make You Feel My Love - таба, видео

Печатать
Просмотров: 231
Sungha Jung - Make You Feel My Love (Adele)
CAPO 3. FRET                                                                 Standard Tuning



--------------------------------------3---2------------------------------------------------)
---3-------------3-----------------3------3----------3-------------------------------------)
---0-------------0--------------0---------2----------2-------------------------------------)
------------------------------------------0---------------------------0-2-0----------------)
-------------------------------------------------------------------------------------------)
-------------------------------------------------------------------------------------------)

********************************************************************************************
-------------------------------------------------------------------------------------------)
---1-------------1---------------------------1----------1----------------------------------)
---2-------------2---------------0--2--------0----------0----------------------------------)
---3-------------3------------3--------3-----2----------2---------------0------------------)
---------------------------3-----------------3----------3----------------------------------)
-------------------------------------------------------------------------------------------)

********************************************************************************************
-------------------------------------------------------------------------------------------)
---1-------------1--------------1--3-----------0----------0--------------------------------)
---0-------------0-----------0---------0--2----0----------0--------------------------------)
---1-------------1--------1------------------------------------------------0---------------)
---3-------------3--------------0----------------------------------------------------------)
-----------------------------------------------3----------3--------------------------------)

********************************************************************************************
-------------------------------------------------------------------------------------------)
---1-------------1---------------------0---------------------------------------------------)
---0-------------0---------------------0-------------------------0-2-----------------------)
---1-------------0---------------------0---------------------0-2---------------------------)
---0-------------3---------------------------------------0-2-------------------------------)
---------------------------------------3---------------------------------------------------)




********************************************************************************************
-------------------------------------------------------------------------------------------)
------------3---3---3--------1--0------3---------------------------------------------------)
------------0---0---0------------------2-----------2---2-----------------------------------)
--------0---------------0----------------------0------------------------0------------------)
-------------------------------------------0---------------------0-------------------------)
---3-----------------------------------2-------------------2-------------------------------)

********************************************************************************************
-------------------------------------------------------------------------------------------)
------------3----3----3------------1-0-1---------------------------------------------------)
------------2---------2--------------------------0---0-------------------------------------)
-------0--------------------0----------------2----------------2----------------------------)
-----------------------------------------3---------------------------0--2------------------)
---1---------------------------------------------------------------------------------------)

********************************************************************************************
-------------------------------------------------------------------------------------------)
-----------1---1-----3---1---0------------0------------------------------------------------)
-----------0---------------------2--------0-------0-------0--------------------------------)
-------1--------------------------------------0-------2----------------2---0---------------)
---3-----------------0---------------------------------------------2-----------------------)
------------------------------------------3--------------------0---------------------------)

********************************************************************************************
-------------------------------------------------------------------------------------------)
-----------------0---------------------------------------------0-1-0-----------------------)
--------0---0---------0---0------0-------------------------0-2-------2---------------------)
--------2-------------1---1------0---------------------0-2---------------------------------)
----0-----------------3---3------------------------0-2-------------------------------------)
--------------------------------------3----------------------------------------------------)




********************************************************************************************
-------------------------------------------------------------------------------------------)
-------------3----3----3-------1----0--------3---------------------------------------------)
-------------0----0----0---------------------2-----------2---2-----------------------------)
--------0------------------0-------------------------0-------------------0-----------------)
-------------------------------------------------0-------------------0---------------------)
----3----------------------------------------2-------------------2-------------------------)

********************************************************************************************
-------------------------------------------------------------------------------------------)
--------------3---3---3-----------1----0-----1------------3---1----------------------------)
--------------2-------2-----------2----------0--------0---------------------0--------------)
--------0-------------------0---------------------2--------------------2-------------------)
---------------------------------------------3--------------------3------------------------)
---1------------------------------0--------------------------------------------------------)

********************************************************************************************
-------------------------------------------------------------------------------------------)
------------1---1---3----1----0------------0--------3--------------------------------------)
------------0----------------------2-------0------------0----------------------------------)
-------1----------------------------------------0---------------------2----0---------------)
---3----------------0--------------------------------------------2-------------------------)
-------------------------------------------3----------------0------------------------------)

********************************************************************************************
-------------------------------------------------------------------------------------------)
-----------------0----------------------------------------0-1-0----------------------------)
--------0----0-------0----0--------0----------------------------2-0------------------------)
--------2------------1----1--------0--------------0-----------------2-0--------------------)
---0-----------------3----3-------------------2-------------------------2------------------)
------------------------------------------3-----------3------------------------------------)




********************************************************************************************
--------3----3----3----3----3----2----0----------------------------------------------------)
--------1----1----1----1----1----1--------------3------------------------------------------)
--------0----0-------------------------------------------0---0-------------0---------------)
-------------2---------------------------------------0----------------0--------------------)
---3-------------------3---------0--------------2-------------------------------0----------)
-----------------------------------------------------------------3-------------------------)

********************************************************************************************
-------------------------------------------------------------------------------------------)
-----------------------0---------------------------0---------------------------------------)
-------2----2----2---------2---------0-------------0---------------0-----------------------)
-------1----1----------------------------------0-------------------------------------------)
---2-------------------2--------0----------------------------0-----------2-----------------)
------------------------------------------3-------------3----------------------------------)

********************************************************************************************
----------3----3----3-----3---3----2----0--------------3---3-------------------------------)
----------1----1----1-----1---1----1----------3--------------------------------------------)
----------0----0---------------------------------------------------------------0-----------)
---------------2-----------------------------------0----------------------4----------------)
----3---------------------3--------0----------2----------------------2---------------------)
----------------------------------------------------------------0--------------------------)

********************************************************************************************
-------------------------------------------------------------------------------------------)
----0-------------------0---0---3----------------------------------------------------------)
-------2---2-------2----0------------0---2------------2------------------------------------)
-------------------2------------------------------0----------------0---------0-------------)
----0-------------------0-----------------------------------------------0------------------)
----------------------------------------------2------------2---3---------------------------)




********************************************************************************************
-------------------------------------------------------------------------------------------)
--------------3---3---3---------1----0---------3-------------------------------------------)
--------------0---0---0------------------------2-----------2---2---------------------------)
---------0-----------------0---------------------------0----------------0------------------)
---------------------------------------------------0------------------0---0---0------------)
----3------------------------------------------2--------------------2-------2--------------)

********************************************************************************************
-------------------------------------------------------------------------------------------)
----------------------0-1-0----------------------------0-----------------------------------)
-------------0---2-----------2----0---------0---------------0------------------------------)
---------0----------------------------0-----------2--------------------2-------------------)
--------------------------------------------3-------------------------------------0-----2--)
----1--------------------------------------------------------------------------------------)

********************************************************************************************
-------------------------------------------------------------------------------------------)
------------------1---3---1---0-------------0----------------------------------------------)
-------------0--------------------2---------0-------0---0----------------------------------)
--------1---------------------------------------0---------------------2----0---------------)
----3-----------------0-------------------------------------------2------------------------)
--------------------------------------------3-----------------0----------------------------)

********************************************************************************************
-------------------------------------------------------------------------------------------)
-------------------0---------------------------------0-1-0---------------------------------)
---------0----0--------0---0------0------------------------2-0-----------------------------)
---------2-------------1---1------0----------------------------2-0-------------------------)
----0------------------3---3---------------------------------------2-0---------------------)
-----------------------------------------3-------------------------------------------------)




********************************************************************************************
---------3---3---3---3---3---3---3-------5-------------------------------------------------)
---------3---3---3---3---3---3--------------------3---3------------------------------------)
-------------------------------------------------------------------------------------------)
-------------0---------------0----------------0----------------------------0---------------)
---------------------------------------------------------------------0---------------------)
----3----------------3-------------------2---------------------2---------------------------)

********************************************************************************************
-----------------------0-1-0---------------------------------------------------------------)
---------------3-------------3-1-0----------------------------3---1------------------------)
---------------2-------------------2-0------------------------0--------------------0-------)
----------0----------------------------3-2-0--------------2-------------------2------------)
---------------------------------------------2--------3------------------3-----------------)
----1--------------2---3-------------------------------------------------------------------)

********************************************************************************************
-------------------------------------------------------------------------------------------)
------------1-------------1----1-3----------0-------3--------------------------------------)
------------0----------------------0-2------0-----------0----------------------------------)
--------1-------------1-------------------------0----------------------2----0--------------)
----3-------------3---3--------0----------------------------------2------------------------)
--------------------------------------------3----------------0-----------------------------)

********************************************************************************************
------------------------------------------*------------------------------------------------)
-----1----------------1--------------0----*------------------------------------------------)
-----0----------------0--------------0----*------------------------------------------------)
-----1----------------0--------------0----*------------------------------------------------)
-----0----------------3-------------------*------------------0----2------------------------)
-------------------------------------3----*---3----3----3----------------------------------)




********************************************************************************************
---------3---3---3---3---3---2---0---------------------------------------------------------)
---------1---1---1---1---1---1--------3----------------------------------------------------)
---------0---0------------------------0-------0---0--------------0-------------------------)
-------------2----------------------------0------------------0-----------------------------)
----3----------------3-------0--------2------------------------------0---------------------)
--------------------------------------------------------3----------------------------------)

********************************************************************************************
-------------------------------------------------------------------------------------------)
------------------------0------------------------------------------------------------------)
----------2---2---2---------2-------0--------------------------0---------------------------)
----------1---1----------------------------------0-----------------------------------------)
----2-------------------2-------0------------2-----------0----------2----------------------)
-----------------------------------------3-----------3-------------------------------------)

********************************************************************************************
----------3----3----3---3---3---2---0--------------3----3----------------------------------)
----------1----1----1---1---1---1---------3------------------------------------------------)
----------0----0-------------------------------------------------------------0-------------)
---------------2------------------------------0-------------------------4------------------)
----3-------------------3-------0---------2------------------------2-----------------------)
--------------------------------------------------------------0----------------------------)

********************************************************************************************
-------------------------------------------------------------------------------------------)
----0--------------------0----0--3---------------------------------------------------------)
--------2---2-------2----0----------0-2----------------2-----------------------------------)
--------------------2-----------------------------0------------------0-------0-------------)
----0--------------------0-----------------------------------------------0-----------------)
---------------------------------------------2--------------2---3--------------------------)




********************************************************************************************
-------------------------------------------------------------------------------------------)
--------------3---3---3--------1---0-------3-----------------------------------------------)
--------------0---0---0--------------------2------------2---2------------------------------)
---------0-----------------0------------------------0-------------------0------------------)
------------------------------------------------0-------------------0----------------------)
----3--------------------------------------2--------------------2--------------------------)

********************************************************************************************
-------------------------------------------------------------------------------------------)
-------------3---3---3-----------1-0-1-----------------------------------------------------)
-------------2-------2--------------------------0---0--------------------------------------)
--------0----------------0------------------2----------------2-----------------------------)
----------------------------------------3------------------------------0----2--------------)
---1---------------------------------------------------------------------------------------)

********************************************************************************************
-------------------------------------------------------------------------------------------)
------------1---1---1---1---0----------0---------------------------------------------------)
------------0-------0------------2-----0-------0-----0-------------------------------------)
-------1-----------------------------------0-------2-------------2---0---------------------)
---3------------------------0--------------------------------2-----------------------------)
---------------------------------------3-----------------0---------------------------------)

********************************************************************************************
-------------------------------------------------------------------------------------------)
------------------0--------------------------------------0-1-0-----------------------------)
----------0---0-------0---0-------0------------------0-2-------2-0-------------------------)
----------2-----------1---1-------0--------------------------------2-0---------------------)
-----0----------------3---3----------------------------------------------------------------)
---------------------------------------3---------------------------------------------------)




********************************************************************************************
-------------------------------------------------------------------------------------------)
------------------0-------------------------------------1-------0--------------------------)
---------0----0-------0---0-------0-------------0------------------------------------------)
---------2------------1---1-------0---------0-------1-------0------------------------------)
----0-----------------3---3----------------------------------------------------------------)
---------------------------------------3---------------------------------------------------)

********************************************************************************************
-------------------------------------------------------------------------------------------)
------------------0------------------------------------------------------------------------)
---------0----0--------0---0--------0------------------------------------------------------)
---------2-------------1---1--------0------------------------------------------------------)
----0------------------3---3---------------------------------------------------------------)
------------------------------------------3------------------------------------------------)
Добавлено: 12.11.2013
Другие материалы по этой песне:

Страница создана 02.09.2013
http://primanota.ru/sungha-jung/make-you-feel-my-love-chords.htm
Привет, Гость.
Предлагаем пройти революционный курс по гитаре.
Подарок от PrimaNota.Ru, забирай!