PrimaNota.ru - самый крупный в мире бесплатный архив песенных текстов, аккордов, табулатур и нот


Sungha Jung - Not Going Anywhere - таба, видео

Регистрация Запомнить меня
Войти через:  Facebook Google Twitter Vk Yandex Mail.ru

Sungha Jung - Not Going Anywhere - таба, видео

Печатать
Просмотров: 166
Not Going Anywhere (Keren Ann)                         
Sungha Jung
yuji812
Capo 3

     E  S S  S  S S S E  S E  S S  S     E  S E  S S S E  S E  S S  S   
E||-------------------3---------------|----------------2---------------|
B||--3----------3----------3----------|--3-------3----------3----------|
G||-------0---------0---------0---(0)-|-------4------4---------4---(0)-|
D||-----0---------0------0------0-----|-----4------4------4------4-----|
A||-----------------------------------|--2-------------2---------------|
E||--3------(3)-------3---------------|--------------------------------|


  E  E  E  E  E  E  E  E     E  S E  S S S E  S E  S S S  
--1-----0-----------------|----------0-------------------|
--------------3-----0-----|--1-------------1-------1-----|
-----2-----2-----------0--|-------2------2------2------0-|
--0--------------0--------|-----2------2------2------2---|
--------------------------|--0-------------0-------------|
--------------------------|------------------------------|


  E  S E  S S S E  S E  S S  S     E  S E  S S S S S E  S  S S S  
----------3---------------------|--------------------------------|
--4-------------4----4----------|--0-------0-----0---------------|
-------5------5---------5---(0)-|-------0------0---2----2p-0---2-|
-----5------5------5------5-----|-----0------0-------0-------0---|
--3-------------3---------------|--------------------------------|
--------------------------------|--3-------------3------3--------|


  S E.  E  S E  S E  S E  S    E  S E  S S S S S E  E  S S  
----------------------------|------------------------------|
----------------------------|----------0-----0---------0---|
----0-------------0---------|-------0------0---2----2----5-|
--------1----1---------1--0-|-----0------0-------0---------|
--3--------3----3----3------|------------------------------|
----------------------------|--3-------------3------3------|


  E  S E  S S S E  S E  S  S   S     E  S E  S S  S  S  S S E  S S S  
----------------3-----------------|----------3-----------------------|
----------4-------------4---------|--3----3------(3)-----------------|
-------5------5------5--------(0)-|-----0------------3p-2---2--0---2-|
-----5------5------5------(0)-----|-----------------------0------0---|
--3-------------3-----------------|--1---------1-----1---------------|
----------------------------------|----------------------------------|


  E  E  S S S S S  S S S S S  S  S    E  S E  S S S E  S E  S  S   S   
-----------------------------------|--2-------2-----2-----------------|
-----------------------------------|-------1------1------1------------|
-----2----2-----2p-0---0---2-----2-|-----2------2------2----2-----(0)-|
-----2--------2------2-------(2)---|--1-------------1---------(0)-----|
--0-----0---0---0--------0---------|----------------------------------|
-----------------------------------|----------------------------------|


  E  S E  S S S S S E  S  S S S    S E.  E  S E  S E  S E  S  
--------------------------------|----------------------------|
----------0-----0---------------|----------------------------|
--0-----------0---2----2p-0---2-|----0--------0----0---------|
-------0----0-------0-------0---|--------1----1---------1--0-|
-----2--------------------------|--3--------3----3----3------|
--3-------------3------3--------|----------------------------|


  E  S E  S S S S S E  E  S S    E  S E  S S S E  S E  S  S   S   
------------------------------|----------------3-----------------|
----------0-----0---------0---|----------4-------------4---------|
-------0------0---2----2----5-|-------5------5------5--------(0)-|
-----0------0-------0---------|-----5------5------5------(0)-----|
------------------------------|--3-------------3-----------------|
--3-------------3------3------|----------------------------------|


  E  S E  S S  S  S  S S E  S S S    E  E  S S S S S  S S S S S  S  S  
----------3-----------------------|-----------------------------------|
--3-----------(3)-----------------|-----------------------------------|
-------0----------3p-2---2--0---2-|-----2----2-----2p-0---0---2-----2-|
-----------------------0------0---|-----2--------2------2-------(2)---|
--1--1------1-----1---------------|--0-----0---0---0--------0---------|
----------------------------------|-----------------------------------|


  E  S E  S S S E  S E  S  S   S     E  E  E  S S S S E  E  S S  
--2-------2-----2-----------------|-----------------------------|
-------1------1------1------------|-------------------------0-3-|
-----2------2------2----2-----(0)-|--0--0--0----0-----0--2------|
--1-------------1---------(0)-----|-----0-----0-----0-0---------|
----------------------------------|--------2--------------------|
----------------------------------|--3------------3------3------|


  E  S E  S S S E  S E  S  S   S     E  E  E  E  E  S E  S  E   
----------2-----------------------|----------------------------|
----------------3-------3---------|--3-----1-----0-------------|
-------4------4------4--------(0)-|-----2-------------2--1h-2--|
-----4------4------4------(0)-----|--0--------0-----0----------|
--2-------------2-----------------|----------------------------|
----------------------------------|----------------------------|


  E  S E  S S S E  S E  S  S   S     E   S  S E   S  S E   S  E   S E   
------------------------0---------|------------------------------------|
----------0-----1-----------------|------------------------------------|
-------2------2------2--------(0)-|--0------------------------------0--|
-----2------2------2------(2)-----|-----------1--------1------3s--5----|
--0-------------0-----------------|--3------3--------3----(x)----------|
----------------------------------|-----(x)------(x)------(x)----------|


  E  E  E  S S S S E  E  S S    E  S E  S S S E  S E  S  S   S   
-----------------------------|----------0-----------------------|
-------------------------0-3-|----------------3-------3---------|
-----0--0----0-----0--2------|-------2------2------2--------(0)-|
--------0--0-----0-0---------|-----0------0------0------(0)-----|
-----2-----------------------|--2-------------2-----------------|
--3------------3------3------|----------------------------------|


  E  E  E  E  E  S E  S  E     E  S E  S S S E  S E  S  S   S   
----------------------------|------------------------0---------|
--3-----1-----0-------------|----------0-----1-----------------|
-----2-------------2--1h-2--|-------2------2------2--------(0)-|
--0--------0-----0----------|-----2------2------2------(2)-----|
----------------------------|--0-------------0-----------------|
----------------------------|----------------------------------|


  E   S  S E   S  S E   S  E   S E     E  S E  S S S E  S E  S S S  
------------------------------------|----------------3-------------|
------------------------------------|----------3-------------3-----|
--0------------------------------0--|-------0------0------0------0-|
-----------1--------1------3s--5----|-----0------0------0------0---|
--3------3--------3----(x)----------|------------------------------|
-----(x)------(x)------(x)----------|--3-------------3-------------|


  E  S E  S S S E  S S  S  S E     E  S E  S S S E  S E  S  S   S   
----------3-----3---------------|----------0-----2-----------------|
--3------------------3----------|--3------------------3------------|
-------0------0------------0----|-------4------4---------4-----(0)-|
-----0------0------0---------0--|-----4------4------4------(0)-----|
--------------------------------|--2-------------2-----------------|
--3-------------3------(3)------|----------------------------------|


  E  E  E  E  E  E  E  E     E  S E  S S S E  S E  S S S  
--1-----0-----------------|----------0-------------------|
--3-----------3-----0-----|--1-------------1-------1-----|
-----2-----------2-----0--|-------2------2------2------0-|
--0--------0--------------|-----2------2------2------2---|
--------------------------|--0-------------0-------------|
--------------------------|------------------------------|


  E  S E  S S S E  S E  S S  S     E  S E  S S S S S E  S  S S S  
----------3---------------------|--------------------------------|
--4-------------4----4----------|--0-------0-----0---------------|
-------5------5---------5---(0)-|-------0------0---2----2p-0---2-|
-----5------5------5------5-----|-----0------0-------0-------0---|
--3-------------3---------------|--------------------------------|
--------------------------------|--3-------------3------3--------|


  S E.  E  S E  S E  S E  S    E  S E  S S S S S E  E  S S  
----------------------------|------------------------------|
----------------------------|----------0-----0---------0---|
----0-------------0---------|-------0------0---2----2----5-|
--------1----1---------1--0-|-----0------0-------0---------|
--3--------3----3----3------|------------------------------|
----------------------------|--3-------------3------3------|


  E  S E  S S S E  S E  S  S   S     E  S E  S S  S  S  S S E  S S S  
----------------3-----------------|----------3-----------------------|
----------4-------------4---------|--3----3------(3)-----------------|
-------5------5------5--------(0)-|-----0------------3p-2---2--0---2-|
-----5------5------5------(0)-----|-----------------------0------0---|
--3-------------3-----------------|--1---------1-----1---------------|
----------------------------------|----------------------------------|


  E  E  S S S S S  S S S S S  S  S    E  S E  S S S E  S E  S  S   S   
-----------------------------------|--2-------2-----2-----------------|
-----------------------------------|-------1------1------1------------|
-----2----2-----2p-0---0---2-----2-|-----2------2------2----2-----(0)-|
-----2--------2------2-------(2)---|--1-------------1---------(0)-----|
--0-----0---0---0--------0---------|----------------------------------|
-----------------------------------|----------------------------------|


  E  S E  S S S S S E  S  S S S    S E.  E  S E  S E  S E  S  
--------------------------------|----------------------------|
----------0-----0---------------|----------------------------|
--0-----------0---2----2p-0---2-|----0--------0----0---------|
-------0----0-------0-------0---|--------1----1---------1--0-|
-----2--------------------------|--3--------3----3----3------|
--3-------------3------3--------|----------------------------|


  E  S E  S S S S S E  E  S S    E  S E  S S S E  S E  S  S   S   
------------------------------|----------------3-----------------|
----------0-----0---------0---|----------4-------------4---------|
-------0------0---2----2----5-|-------5------5------5--------(0)-|
-----0------0-------0---------|-----5------5------5------(0)-----|
------------------------------|--3-------------3-----------------|
--3-------------3------3------|----------------------------------|


  E  S E  S S  S  S  S S E  S S S    E  E  S S S S S  S S S S S  S  S  
----------3-----------------------|-----------------------------------|
--3-----------(3)-----------------|-----------------------------------|
-------0----------3p-2---2--0---2-|-----2----2-----2p-0---0---2-----2-|
-----------------------0------0---|-----2--------2------2-------(2)---|
--1--1------1-----1---------------|--0-----0---0---0--------0---------|
----------------------------------|-----------------------------------|


  E  S E  S S S E  S E  S  S   S     E  E  E  S S S S E  E  S S  
--2-------2-----2-----------------|-----------------------------|
-------1------1------1------------|-------------------------0-3-|
-----2------2------2----2-----(0)-|--0--0--0----0-----0--2------|
--1-------------1---------(0)-----|-----0-----0-----0-0---------|
----------------------------------|--------2--------------------|
----------------------------------|--3------------3------3------|


  E  S E  S S S E  S E  S  S   S     E  E  E  E  E  S E  S  E   
----------2-----------------------|----------------------------|
----------------3-------3---------|--3-----1-----0-------------|
-------2------2------2--------(0)-|-----2-------------2--1h-2--|
-----0------0------0------(0)-----|--0--------0-----0----------|
--2-------------2-----------------|----------------------------|
----------------------------------|----------------------------|


  E  S E  S S S E  S E  S  S   S     E   S  S E   S  S E   S  E   S E   
------------------------0---------|------------------------------------|
----------0-----1-----------------|------------------------------------|
-------2------2------2--------(0)-|--0------------------------------0--|
-----2------2------2------(2)-----|-----------1--------1------3s--5----|
--0-------------0-----------------|--3------3----(x)-3----(x)----------|
----------------------------------|-----(x)------(x)------(x)----------|


  E  E  E  S S S S E  E  S S    E  S E  S S S E  S E  S  S   S   
-----------------------------|----------0-----------------------|
-------------------------0-3-|----------------3-------3---------|
-----0--0----0-----0--2------|-------2------2------2--------(0)-|
-----------0-----0-0---------|-----0------0------0------(0)-----|
--------2--------------------|--2-------------2-----------------|
--3--3---------3------3------|----------------------------------|


  E  E  E  E  E  S E  S  E     E  S E  S S S E  S E  S  S   S   
----------------------------|------------------------0---------|
--3-----1-----0-------------|----------0-----1-----------------|
-----2-------------2--1h-2--|-------2------2------2--------(0)-|
--0--------0-----0----------|-----2------2------2------(2)-----|
----------------------------|--0-------------0-----------------|
----------------------------|----------------------------------|


  E   S  S E   S  S E   S  E   S E     E  S E  S S S E  S E  S S S  
------------------------------------|----------------3-------------|
------------------------------------|----------3-------------3-----|
--0------------------------------0--|-------0------0------0------0-|
-----------1--------1------3s--5----|-----0------0------0------0---|
--3------3--------3----(x)----------|------------------------------|
-----(x)------(x)------(x)----------|--3-------------3-------------|


  E  S S S S S S E  S S  S  S S S    E  S S S S S S E  S S S S  S  S  
-----------3-----3----2-----3-----|-----------------3----2---3-------|
--3--------------3----3-----3---3-|-----------3-----3--------------1-|
-------0-------0------------------|-------2-------2------------(2)---|
-----0-------0------0---------0---|-----0-------0------0-------------|
----------------------------------|--2------2-------2------2---------|
--3------3-------3------(3)-------|----------------------------------|


  E  S S S S S S E  S E  S S S    E  S S  S S E  S S S S S  S S S  
-----------------2----0--------|----------------------------------|
-----------1-------------1-----|--3----3s-4-L-3----1-----1p-0---0-|
-------0-------0-------------0-|------------0----------0----------|
-----2-------2------2------2---|-----0---------------0--------0---|
--0------0-------0-------------|--3-----------3--3-------3--------|
-------------------------------|----------------------------------|


  E  S S S S S S E  S S S S S S    E  S S S S S S S  S S S S   S S S  
-----------------3----2---0-----|-----------------3p-2---3---3g5-L-3-|
-----------0-----0------------3-|-----------3------------------------|
-------0-------0----------------|-------2-------2------0---------0---|
-----0-------0------0-------0---|-----0-------0----------------------|
--------------------------------|--2------2-------2--------2---------|
--3------3-------3------3-------|------------------------------------|


  E  E  S S S S E  S E  S S S    E   S  S  S   S  E.  S  S   S  E   S   S   
----------3-----2----0--------|--------------------------------------------|
-----3--------3---------3-----|--4------3---------1---1---------1---1--(0)-|
-----0------0------0--------0-|-----(0)-------(0)-----------(0)-----0------|
--------------------------0---|-----------(0)-----------(0)----------------|
--3-----3-------3-------------|--3----------------3----------------(x)-----|
------------------------------|------------------------------------(x)-----|


  E  E  E  S S S S E  E  S S    E  S E  S S S E  S E  S  S   S   
-----------------------------|----------2-----------------------|
-------------------------0-3-|----------------3-------3---------|
--0--0--0----0-----0--2------|-------2------2------2--------(0)-|
-----0-----0-----0-0---------|-----0------0------0------(0)-----|
--------2--------------------|--2-------------2-----------------|
--3------------3------3------|----------------------------------|


  E  E  E  E  E  S E  S  E     E  S E  S S S E  S E  S  S   S   
----------------------------|------------------------0---------|
--3-----1-----0-------------|----------0-----1-----------------|
-----2-------------2--1h-2--|-------2------2------2--------(0)-|
--0--------0-----0----------|-----2------2------2------(2)-----|
----------------------------|--0-------------0-----------------|
----------------------------|----------------------------------|


  E   S  S E   S  S E   S  E   S E     E  E  E  S S S S E  E  S S  
------------------------------------|-----------------------------|
------------------------------------|-------------------------0-3-|
--0------------------------------0--|-----0--0----0-----0--2------|
-----------1--------1------3s--5----|-----------0-----0-0---------|
--3------3----(x)-3----(x)----------|--------2--------------------|
-----(x)------(x)------(x)----------|--3--3---------3------3------|


  E  S E  S S S E  S E  S  S   S     E  E  E  E  E  S E  S  E   
----------0-----------------------|----------------------------|
----------------3-------3---------|--3-----1-----0-------------|
-------2------2------2--------(0)-|-----2-------------2--1h-2--|
-----0------0------0------(0)-----|--0--------0-----0----------|
--2-------------2-----------------|----------------------------|
----------------------------------|----------------------------|


  E  S E  S S S E  S E  S  S   S     E   S  S E   S  S E   S  E   S E   
------------------------0---------|------------------------------------|
----------0-----1-----------------|------------------------------------|
-------2------2------2--------(0)-|--0------------------------------0--|
-----2------2------2------(2)-----|-----------1--------1------3s--5----|
--0-------------0-----------------|--3------3--------3----(x)----------|
----------------------------------|-----(x)------(x)------(x)----------|


  E  E  E  S S S S E  E  S S    E  S E  S S S E  S E  S  S   S   
-----------------------------|----------0-----------------------|
-------------------------0-3-|----------------3-------3---------|
-----0--0----0-----0--2------|-------2------2------2--------(0)-|
--------0--------0-----------|-----0------0------0------(0)-----|
-----2-----------------------|--2-------------2-----------------|
--3--------3---3---3---------|----------------------------------|


  E  E  E  E  E  S E  S  E     E  S E  S S S E  S E  S  S   S   
----------------------------|------------------------0---------|
--3-----1-----0-------------|----------0-----1-----------------|
-----2-------------2--1h-2--|-------2------2------2--------(0)-|
--0--------0-----0----------|-----2------2------2------(2)-----|
----------------------------|--0-------------0-----------------|
----------------------------|----------------------------------|


  E   S  S E   S  S E   S  E   S E     E  E  E  S S S S E  E  S S  
------------------------------------|-----------------------------|
------------------------------------|-------------------------0-3-|
--0------------------------------0--|-----0--0----0-----0--2------|
-----------1--------1------3s--5----|--------0--0-----0-0---------|
--3------3--------3----(x)----------|-----2-----------------------|
-----(x)------(x)------(x)----------|--3------------3------3------|


  E  S E  S S S E  S E  S  S   S     E  E  E  E  E  S E  S  E   
----------0-----------------------|----------------------------|
----------------3-------3---------|--3-----1-----0-------------|
-------2------2------2--------(0)-|-----2-------------2--1h-2--|
-----0------0------0------(0)-----|--0--------0-----0----------|
--2-------------2-----------------|----------------------------|
----------------------------------|----------------------------|


  E  S E  S S S E  S E  S  S   S     E   S  S E   S  S E   S  E   S E   
------------------------0---------|------------------------------------|
----------0-----1-----------------|------------------------------------|
-------2------2------2--------(0)-|--0------------------------------0--|
-----2------2------2------(2)-----|-----------1--------1------3s--5----|
--0-------------0-----------------|--3------3--------3----(x)----------|
----------------------------------|-----(x)------(x)------(x)----------|


  E  S S S S S S E  S E  S S S    E  S S S S S S E  S S  S   S  E   
-----------------3-------------|-----------3-----2----------(0)----|
-----------3-------------3-----|--3-------------------3------------|
-------0-------0------0------0-|-------0-------0-------------------|
-----0-------0------0------0---|-----0-------0------0-----------0--|
-------------------------------|-----------------------------------|
--3------3-------3-------------|--3------3-------3------(3)--------|


  E  S E  S S S E  S E  S  S   S     E  E  E  E  E  E  E  E   
----------2-----2-----------------|--1-----0-----------------|
--3------------------3------------|--------------3-----0-----|
-------4------4---------4-----(0)-|-----2-----------------0--|
-----4------4------4------(0)-----|--0--------0-----0--------|
--2-------------2-----------------|--------------------------|
----------------------------------|--------------------------|


  E  S E  S S S E  S E  S S S    E  S E  S S S E  S E  S S S  
----------0-------------------|----------3-------------------|
--1-------------1-------1-----|--4-------------4-------4-----|
-------2------2------2------0-|-------5------5------5------0-|
-----2------2------2------2---|-----5------5------5------5---|
--0-------------0-------------|--3-------------3-------------|
------------------------------|------------------------------|


  ^                  
  W                  
--2----------------||
--3----------------||
--0----------------||
-------------------||
-------------------||
--3----------------||




Duration Legend
---------------
W - whole
H - half
Q - quarter
E - 8th
S - 16th
T - 32nd
X - 64th
. - note dotted
|-n-|  - n-tuplets


Tablature Legend
----------------
L - tied note
x - dead note
g - grace note
(n) - ghost note
> - accentuded note
NH - natural harmonic
AH - artificial harmonic
TH - tapped harmonic
SH - semi harmonic
PH - pitch harmonic
h - hammer on
p - pull off
b - bend
br - bendRelease
pb - preBend
pbr - preBendRelease
brb - bendReleaseBend
\n/ - tremolo bar dip
\n - tremolo bar dive
-/n - tremolo bar Release up
/n\ - tremolo bar inverted dip
/n - tremolo bar return
-\n - tremolo bar Release down
S - shift slide
s - legato slide
/ -  slide into from below or out of upwards
\ -  slide into from above or out of downwards
~ - vibrato
W - wide vibrato
tr - trill
TP - tremolo picking
T - tapping
S - slap
P - pop
< - fade in
^ - brush up
v - brush down
Добавлено: 05.09.2013
Другие материалы по этой песне:

Страница создана 11.06.2013
http://primanota.ru/sungha-jung/not-going-anywhere-chords.htm
Привет, Гость.
Предлагаем пройти революционный курс по гитаре.
Подарок от PrimaNota.Ru, забирай!