PrimaNota.ru - самый крупный в мире бесплатный архив песенных текстов, аккордов, табулатур и нот


Stevie Ray Vaughan And Double Trouble - Mary Had A Little Lamb - бас-таба, видео

Регистрация Запомнить меня
Войти через:  Facebook Google Twitter Vk Yandex Mail.ru

Stevie Ray Vaughan And Double Trouble - Mary Had A Little Lamb - бас-таба, видео

Печатать
Просмотров: 241
Уроки эстрадного вокала в Санкт-Петербурге
Авторы: Buddy Guy
Авторы текста: Sarah Josepha Hale
Stevie Ray Vaughan 
Mary had a little lamb 


Bass Tab

Bassist: Tommy Shannon

Tuning : EADG
Tempo: 122 bpm 

Key: D+


Intro: 00:01 (Play X2)
G|-----------5g--|-------------5-|-----------5g--|--------------|-
D|-----5b8h------|----5b6h-7-8h--|-----5b8h------|---5b6h-5-----|-
A|-6g------------|-6g------------|-6g------------|-6g-------6-3-|-
E|---------------|---------------|---------------|--------------|-
 
G|---------------|---------------|-----------5g--|--------------|-
D|-----------3g--|---------------|-----5b8h------|---5-6--5-----|-
A|-----3b6h------|----3b4h-3-4-5-|-6g------------|-6g-------6-5-|-
E|-4g------------|-4g------------|---------------|--------------|-
 
G|---------------|--------------|-----------5g-----||-
D|-----------5g--|----------3g--|-----5b8h---------||-
A|-----5b8h------|----3b6h------|-6g------------6.-||-
E|-6g------------|-4g-----------|------------------||-
                           
 
Verse1: 00:48
G|---------------|---------------|---------5-6-5-|---------------|-
D|---------3-4-3-|---------------|----5b8h-------|----5b6h-5-----|-
A|----3b6h-------|----3b4h-3-4-5-|-6g------------|-6g--------6-5-|-
E|-4g------------|-4g------------|---------------|---------------|-
Mary had a little lamb
His fleece was black as coal, yeah
 
G|--------------|--------------|---------5-6-5-----||-
D|--------5-6-5-|--------3-4-3-|-----5b8h----------||-
A|----5b8h------|----3b6h------|-6g-------------6.-||-
E|-6g-----------|-4g-----------|-------------------||-
And everywhere the child went
That little lamb was sure to go now.
 
Verse2: 01:03
G|---------------|---------------|---------5-6-5-|---------------|-
D|---------3-4-3-|---------------|----5b8h-------|----5b6h-5-----|-
A|----3b6h-------|----3b4h-3-4-5-|-6g------------|-6g--------6-5-|-
E|-4g------------|-4g------------|---------------|---------------|-
He followed her to school one day
Which broke the teachers cool
 
G|--------------|--------------|---------5-6-5-----||-
D|--------5-6-5-|--------3-4-3-|-----5b8h----------||-
A|----5b8h------|----3b6h------|-6g-------------6.-||-
E|-6g-----------|-4g-----------|-------------------||-
But what a time did they have
That day at school.
 

INSTRUMENTAL:
Part1 & 2: 01:19   (play X2)
G|---------------|---------------|---------5-6-5-|---------------|-
D|---------3-4-3-|---------------|----5b8h-------|----5b6h-5-----|-
A|+---3b6h-------|----3b4h-3-4-5-|-6g------------|-6g--------6-5-|-
E|/4g------------|-4g------------|---------------|---------------|-
 
G|--------------|--------------|---------5-6-5-----||------------|-
D|--------5-6-5-|--------3-4-3-|-----5b8h----------||-5-6--5-6---|-
A|----5b8h------|----3b6h------|-6g-------------6.-||----------3-|-
E|-6g-----------|-4g-----------|-------------------||------------|-
 
Part3: 01:51
G|---------------|---------------|---------5-6-5-|---------------|-
D|---------3-4-3-|---------------|----5b8h-------|----5b6h-5-----|-
A|----3b6h-------|----3b4h-3-4-5-|-6g------------|-6g--------6-5-|-
E|-4g------------|-4g------------|---------------|---------------|-
 
G|--------------|--------------|---------5-6-5-----||-
D|--------5-6-5-|--------3-4-3-|-----5b8h----------||-
A|----5b8h------|----3b6h------|-6g-------------6.-||-
E|-6g-----------|-4g-----------|-------------------||-
 
Tisket!
 

Verse2: 02:07
G|---------------|---------------|---------5-6-5-|---------------|-
D|---------3-4-3-|---------------|----5b8h-------|----5b6h-5-----|-
A|+---3b6h-------|----3b4h-3-4-5-|-6g------------|-6g--------6-5-|-
E|/4g------------|-4g------------|---------------|---------------|-
Tasket! baby
A green and yellow basket
 
G|--------------|--------------|---------5-6-5-----||-
D|--------5-6-5-|--------3-4-3-|-----5b8h----------||-
A|----5b8h------|----3b6h------|-6g-------------6.-||-
E|-6g-----------|-4g-----------|-------------------||-
Sooner or later to my baby
And on my way I past it.
 

Outro: 02:22
G|-----------5g--|-------------5-|-----------5g--|--------------|-
D|-----5b8h------|----5b6h-7-8h--|-----5b8h------|---5b6h-5-----|-
A|-6g------------|-6g------------|-6g------------|-6g-------6-3-|-
E|---------------|---------------|---------------|--------------|-
 
G|---------------|---------------|-----------5g--|--------------|-
D|-----------3g--|---------------|-----5b8h------|---5-6--5-----|-
A|-----3b6h------|----3b4h-3-4-5-|-6g------------|-6g-------6-5-|-
E|-4g------------|-4g------------|---------------|--------------|-
 
G|---------------|--------------|-----------5g-----||-
D|-----------5g--|----------3g--|-----5b8h---------||-
A|-----5b8h------|----3b6h------|-6g------------6.-||-
E|-6g------------|-4g-----------|------------------||-


End: 02:47


Tablature Legend ----------------  
| S  slap 
| P  pop 
| x  mute note
| .  full stop 
| /  slide up 
| \  slide down 
| h  hammer-on 
| p  pull-off 
| g  grace note 
| ~  vibrato 
| ^  brush up
Добавлено: 06.10.2015
Другие материалы по этой песне:

Страница создана 27.04.2012
http://primanota.ru/stevie-ray-vaughan-and-double-trouble/mary-had-a-little-lamb-chords.htm
Привет, Гость.
Предлагаем пройти революционный курс по гитаре.
Подарок от PrimaNota.Ru, забирай!