PrimaNota.ru - самый крупный в мире бесплатный архив песенных текстов, аккордов, табулатур и нот


Stevie Ray Vaughan And Double Trouble - Chitlins Con Carne - таба, бас-таба, видео

Регистрация Запомнить меня
Войти через:  Facebook Google Twitter Vk Yandex Mail.ru

Stevie Ray Vaughan And Double Trouble - Chitlins Con Carne - таба, бас-таба, видео

Печатать
Просмотров: 111
Авторы музыки: Kenny Burrell

CHITLINS CON CARNE

As recorded by Stevie Ray Vaughan And Double Trouble
(From the 1991 Album THE SKY IS CRYING)

Music by Kenny Burrell
Arranged by Stevie Ray Vaughan

Transcribed by Slowhand


Gtr I (Eb Ab Db Gb Bb Eb) - 'Stevie Ray Vaughan - Electric Guitar (1/2 step down)'


  Q=116
  N.C.
 4/4
  Gtr I
  Q   E  E E e  E e    a  Q  E E +Q   Q
|-------------------|--------------------|
|-------------------|--------------------|
|----------8---10---|-10s12----8-(8)-----|
|----10-10----------|--------------------|
|----------6----8---|--8s10----6-(6)-----|
|-----8--8---8----8-|--------------------|


                                        Cm6
  Q   E   E  E  E  E  E    +Q   Q  Q  E e
|-----------------------|------------------|
|-----------------------|---------------8--|
|-------(10)-8----10----|---------------8--|
|----10--10----10----10-|-(10)----------7--|
|------------6-----8----|------------------|
|-----8---8-----8-----8-|--(8)-------------|


  N.C.
  Q   E  E E  E  E  E    a  Q   E a E +Q    Q
|---------------------|------------------------|
|---------------------|------------------------|
|----------8----10----|-10s12-----6s8-(8)\-----|
|----10-10---10----10-|--------10--------------|
|----------6-----8----|--8s10-----4s6-(6)\-----|
|-----8--8----8-----8-|---------8--------------|


                                             Cm6
  Q  a  E  E E  E   E    E     +Q    Q  Q  E e
|---------------------------|------------------|
|-----------------(10)------|----------------8-|
|------------8-----10--(10)-|----------------8-|
|----9s10-10---10-------10--|-(10)\----------7-|
|------------6------8-------|------------------|
|----7s=8--8----8--------8--|--(8)\------------|


  N.C.
  Q   E  E E  e  E e    a  E  Q.    +Q    E  a  E
|--------------------|----------------------------|
|--------------------|-------11----(11)-----------|
|----------8----10---|-10s12-------------10-11s10-|
|----10-10---10------|--------8-----(8)-----------|
|----------6-----8---|--8s10--------------8--9s=8-|
|-----8--8----8----8-|----------------------------|


   +H      +Q.   E   Q  E  e H
|------------------|--------------|
|------------------|--------------|
|-(10)----(10)---8-|--------------|
|------------------|------10------|
|--(8)-----(8)---6-|--------------|
|------------------|-------8------|


                       N.C.                Cm7    N.C.
  Q   E  E E e  E e     a  Q   E E +E  E E e   Q   E  E E  E  E  E
|-------------------||-----------------------|---------------------|
|-------------------||-----------------------|---------------------|
|----------8---10---||-10s12-----8-(8)-----8-|----------8----10----|
|----10-10----------||--------10-----------8-|----10-10---10----10-|
|----------6----8---||--8s10-----6-(6)-------|----------6-----8----|
|-----8--8---8----8-||---------8-----------8-|-----8--8----8-----8-|


         Cm7                N.C.                               Cm7
   +E  E e E +E  E e e   Q   E  E E  e  E e    a  Q   E E +Q   E E
|----------------------|--------------------|----------------------|
|--------8-8-(8)---8-8-|--------------------|--------------------8-|
|--------8-8-(8)---8-8-|----------8----10---|-10s12-----8-(8)----8-|
|-(10)-----8-(8)---8-8-|----10-10---10------|--------10----------8-|
|----------------------|----------6-----8---|--8s10-----6-(6)------|
|--(8)-----------------|-----8--8----8----8-|---------8--------8---|


        N.C.
  +E  E  E  E E  e E  E    +Q    Q  H
|-----------------------|----------------|
|-(8)-------------------|----------------|
|-(8)---------8-10------|----------------|
|-(8)---10-10--------10-|-(10)\----------|
|-------------6--8------|----------------|
|--------8--8---------8-|--(8)\----------|


  H    E  E E  e    a  E  Q.    +Q    E  a  E
|----------------|-----------------------------|
|----------------|-------11----(11)------------|
|-----------8-10-|-10s12-------------10-11s10--|
|--------10------|--------8-----(8)------------|
|-----------6--8-|--8s10--------------8--9s=8--|
|---------8------|-----------------------------|


                                                                 N.C.
   +Q   E  E E  E  e  E    +Q    Q  H      Q  E S  S E  E E E    W
|-----------------------|----------------|-----------8----8-8-||------|
|-----------------------|----------------|------8-11---11-----||------|
|-(10)-------8----10----|----------------|--------------------||------|
|---------10---10----10-|-(10)\----------|--------------------||------|
|--(8)-------6-----8----|----------------|--------------------||------|
|----------8----8-----8-|--(8)\----------|--------------------||------|


       |--3--|  |-3--|  |-3-|
  E  E E  E  E  E  E E  E E E    E  E E e H      Q  S E. S E. a Q
|---11-8----------------------|----------------|---------7s8--------|
|--------11-------------------|---------8------|----7s8-------7s8---|
|-----------12-11-10-8--------|---------8------|--------------------|
|----------------------10-8---|-10-10----------|--------------------|
|---------------------------9-|----------------|--------------------|
|-----------------------------|----------------|--------------------|


  a  Q.    E E  e Q    Q   S E.  S E.  S  E.
|--------------------|----11p8---------------|
|--------------------|----------11-8---------|
|-9s10-------8-10----|----------------11s10--|
|---------10---------|-----------------------|
|--------------------|-----------------------|
|--------------------|-----------------------|


  S  E. S  E. Q   S E.   E E E E H
|----------------------|--------------|
|----------------------|--------------|
|-8--------------------|--------------|
|---10--8--------------|--------------|
|---------10--8--------|--------------|
|----------------11p8--|-8-----8------|


                                                             ~~
           |-3--|              |--3--|  |---3----|   |-3--|
  Q  E  E  E E  E Q    Q  E  E E  E  E  E  a  E  E   E  E E  Q  a  e E Q
|--------------------|-----------------------------|----------------------|
|--------------------|-----------------11----------|----------------------|
|------11------------|---------8-10-------10s11-10-|-8--------------------|
|--------------------|------10------10-------------|---10-8-10------------|
|-------9-10p9-10----|-----------------------------|------------8s10------|
|--------------------|-----------------------------|----------------------|


                             N.C.
                                                      |3|  |3|
  E  e E e  e S S S S S S     a  E  E E S S S S S  S  E S  E S
|---------------8---------||-11s13-11-8---8--------------------|
|-------------9-----8---8-||------------8-----8----------------|
|--------7-10-------------||----------------------11s10-8------|
|------9------------------||------------------------------10-8-|
|---10--------------------||-----------------------------------|
|-------------------------||-----------------------------------|


            Cm7        N.C.
                        |3-|  |--3--|  |--3--|  |--3--|          |3-|
  E  e  e S S H      E  S  e  S  S  S  S  S  S  S  S  S S  S  E  S  E
|-----------8------|---------11-13-14s13p11----11---------13s15-13h15-|
|-8-10------8------|------11----------------12----13p11---------------|
|-8-10------8------|---12---------------------------------------------|
|------10-8--------|--------------------------------------------------|
|------------------|--------------------------------------------------|
|------------------|--------------------------------------------------|


   |--3--|  |--3--|  |--3--|  |--3--|  |3-|  |--3--|  |--3--|  |-3--|
   S  S  S  S  S  S  S  S  S  S  S  S  S  e  S  S  S  S  S  S  S S  S
|-15s13p11----11-14-13-11----13-11------------------------------------|
|----------13-------------13-------13-------11------------------------|
|-------------------------------------13-10----12-11-10-10-11-10p8----|
|------------------------------------------------------------------10-|
|---------------------------------------------------------------------|
|---------------------------------------------------------------------|


  |--3--|  |-3--|  |3-|  |-3--|     |3-|  |-3--| |-3--|
  S  S  S  S S  S  E  S  S S  S  e  E  S  S S  S S  S S
|---------------------------------------------------------|
|-----------------11--------------------------------------|
|-8-10-11-10p8-------11s10-8----10-10s11s10p8----8--------|
|--------------10------------10---------------10---10p8---|
|---------------------------------------------------------|
|---------------------------------------------------------|


      |-3--| |-3-| |-3-|
   e  S S  S S S S S S S S T T S S  Q     +W           Q.    e Q  E  S  S
|--------------------------------------|-------------|--------------------|
|--------------------------------------|-------------|-----------------11-|
|--------------------------------------|-------------|--------------12----|
|-------8------------------------------|-------------|--------------------|
|-10-10---10s8p6-----8s9s8-6---6-8s10--|-(10)--------|-8------------------|
|----------------8-----------7---------|-------------|------11------------|


                           Cm7
   Q   E E  E  e Q    Q  E  a  E  a  q   q
|-----11------------|-----------------------|
|-13-------13-11----|---------11----11--11--|
|-------------12----|------10h12-10h12--12--|
|-------------------|---------10----10--10--|
|-------------------|-----------------------|
|-------------------|-----------------------|


  S  a  E  S   e   a  E  S  S  S  S  S  S  S  S
|---------10-(10)----10----10-------10-----------|
|------11-11-(11)----11----11-------11-------11--|
|---10h12-10h=12--10h12----10h12----10h12----10--|
|------10-10-(10)----10----10-------10-------10--|
|-----------------------10-------10-------10-----|
|------------------------------------------------|


   S  S  S  S  S  S  S  S  S  S  E  S  S  S  S
|----------------------------------------------||
|----11-------11-------11-------11----11-------||
|-12-10h12----10h12----10h12----------10h12----||
|----10-------10-------10----10----10-------10-||
|----------10-------10-------10----------------||
|----------------------------------------------||


  Cm7
   S  S  E  S  S  S  S  S  S  S  S  S  S  E    S  S  S  S  S  S  S  S  S  S  E  E  e
|-------------------------------------------|-10-------------------------------10-10---|
|-11-------11-------11-------11-------11----|-11-------11-------11-------11----11-11---|
|-10h12----10h12----10h12----10h12----10h12-|-10h12----10h12----10h12----10h12-10-12---|
|-------10-------10-------10-------10-------|-------10-------10----------10------------|
|-------------------------10----------------|-------------------------10---------------|
|-------------------------------------------|------------------------------------------|


   e  E  e  S  S  +S   e  S  E  e
|---------------------------------|
|----10-11----10-(10)-11-10h11----|
|----10-12----10-(10)-12-10h12----|
|-10-10-10-10---------10-10----10-|
|-10-------10------------------10-|
|---------------------------------|


   T  T  E  T  T  E  T  T  E  S  T  T  S  T  T  T  T  S  S
|-------------------10----------10---------------------------|
|-11-------11-------11----------11----------11----------11---|
|-10h12----10h12p10-10h12p10----10h12-10----10h12p10----10h==|
|-------10-10-------10-------10----------10----------10------|
|------------------------------------------------------------|
|------------------------------------------------------------|


   T  T  E  S  E  a  S  S  S  T  T  S  T  T  S  S  E
|----------10----------------------------------------|
|----------11-------11-------11-------11-------------|
|-12-10----12p10-10h12p10----12p10----12p10----12p10-|
|-------10----------------10-------10-------10-------|
|----------------------------------------------------|
|----------------------------------------------------|


  N.C.
           |3-|  |-3--| |---3---|
   a S  S  E  S  S S  S S  S    S S  S S  S  E. T T
|---------------------------------8-----------------|
|---------11--------------------8---11----------8---|
|-10s8-------11s10p8----8-10b12----------11s10----8-|
|------10------------10-----------------------------|
|---------------------------------------------------|
|---------------------------------------------------|


                             Cm6 Dm   Cm
   S S  Q.   e  e Q    Q   a  Q   E E E  E
|--------------------|----10s11--10---8----|
|------------8-10----|-----9s10--10---8----|
|------------8-10----|----11s12--10---8-10-|
|-10p8h10------------|-----9s10---------10-|
|--------------------|---------------------|
|--------------------|---------------------|


  N.C.
  a  Q  Q  +E   Q   E   E E E  E Q.   E
|---------------------|-----------------|
|------------------11-|----------9------|
|--------------10-----|-------10--------|
|-------9--(9)--------|-----7-----------|
|-9s10----------------|---8-------------|
|---------------------|-----------------|


  Cm                N.C.           N.C.
  e E E  E E Q.     e E Q  H       W          H    E S  S   Q
|-8---------------|-8-----------||----------|-------------------|
|-8----------8----|-------------||----------|-------------------|
|-8--------8------|-------------||----------|--------------12---|
|-------10--------|-------------||----------|--------9s10-(10)--|
|-----------------|-------------||----------|-------------------|
|-----------------|-------------||----------|-------------------|


                     |--3--|
   +Q    Q   +E   e  E  E  E   S  S S  S  S S  e e E Q    H    E  a  Q   S  S
|----------------------------|--------------------------|---------------------|
|-------13--(13)-13-11----13-|-------------------8------|--------14s15--15-15-|
|-(12)-----------------12----|---12---11s10-8----8------|---------------------|
|-(10)--10--(10)-------------|----------------10--------|--------11s12--12----|
|----------------------------|--------------------------|---------------------|
|----------------------------|--------------------------|---------------------|


                                                               |3|
   E.  S  E  E  S  S  E  a  E  E   E  e  e e  E E  a  Q     a  Q E Q  H
|--------------------------------|-----------------------|-----------------|
|-15--15s16-15-11s12-13----------|---10------------------|-----------------|
|-----------------------11s10----|-8-10----8-10---11s12--|-------8---------|
|-12--12s13-12--8s=9-10-------10-|------10---------------|-12s10-----------|
|------------------------9s=8----|-6--8----6--8----9s10--|-------6---------|
|------------------------------8-|-------8---------------|-10s=8-----------|


                                         |--3--|    |-3--|
  H     a  Q   Q     E  e  a  E  E  Q   +E  E  E    E  E E  Q  H
|-----------------|------------------------------|------------------|
|-----------------|----------------10--(10)------|------------------|
|------14s15--15--|-15-14-11s12-11-10--(10)-8----|-10----8----------|
|-----------------|---------------------------10-|----10---10-------|
|------12s13--13--|-13-12--9s10--9--8---(8)-6----|--8----6----------|
|-----------------|----------------------------8-|-----8----8-------|


                                  |--3--|  |--3--|
  E  S  S  E  S  S  T  T  T  T  e S  S  S  S  S  S
|------11-13-11----13h14p13p11----8----------------||
|---13----------13-------------13---11-------11----||
|--------------------------------------10s12----11s||
|--------------------------------------------------||
|--------------------------------------------------||
|--------------------------------------------------||


  N.C.
   |-3--|  |-3--|             |-3--| |3-|
   S S  S  S S  S  +S   S  E  S S  S S  E  a E S S
|--------------------------------------------------|
|--------------------------------------------------|
|-10p8----10-8---------------10-8------------------|
|------10------10-(10)\-----------10-8-------------|
|-----------------------8s10-----------10-10s8-8-6-|
|--------------------------------------------------|


               |-3--|  |-3-|    |-3-|
  a  E S  S  E S  S S  S S S  a S S S S S S a  S
|------------------------------------------------|
|------------------------------------------------|
|-----------10-8----8------8---------------------|
|------8---------10-8------8---------------------|
|-8s10---10-----------10p8---10s8p6---8p6---8s10-|
|-----------------------------------8-----8------|


    ~~~~
    Q   E  E  Q   e      E   Q  E  e  q  S  e S
|---------15\--------------|------15-15----15----|
|---------16\----16b16.5---|------16-16----16----|
|--------------------------|---------------------|
|--10----------------------|---------------------|
|-(10)---------------------|---------------------|
|--------------------------|---------------------|


                                             Dm   Cm      N.C.
  E  e S  e S  e S  S E S S   +E    e S  e S  e S  S  +E  S S
|---15---15---11---11---8-8-|-(8)------------10---(8)-(8)-----|
|---16---16---10---10---8-8-|-(8)-/11---11---10----8--(8)-----|
|---------------------------|-----/12---12---10----8--(8)-----|
|---------------------------|-----------------------------8-9-|
|---------------------------|---------------------------------|
|---------------------------|---------------------------------|


   S S S  S Q  E  E  S S  S S
|-----------------8-----------|
|---------------------------8-|
|----------------10-10p8----8-|
|-10-8-------------------10---|
|------8h10-------------------|
|-----------------------------|


  +S   e  S e  e H      E  e S  e S  e S  S E S S
|---------------------|---15---15---11---11---8-8-|
|-(8)-----------------|---16---16---10---10---8-8-|
|-(8)-10----8-10------|---------------------------|
|--------10-----------|---------------------------|
|---------------------|---------------------------|
|---------------------|---------------------------|


  +E    e S  e S  e S  S  +E  S S
|-(8)------------10---(8)-(8)------|
|-(8)-/11---11---10----8--(8)------|
|-----/12---12---10----8--(8)------|
|-----------------------------8-9--|
|----------------------------------|
|----------------------------------|


                                            N.C.
                          TP        TP
   S S S  S Q  H      Q   E. S e E  E  e     a  e E E  E E  e Q
|-------------------|--------------------||----------------------|
|-------------------|--------------------||----------------------|
|-------------------|----------8---10-10-||-10s12--------8-------|
|-10-8--------------|----10--------------||-----------10---10----|
|------8------------|----------6----8--8-||--8s10--------6-------|
|--------11---------|-----8--------------||------------8----8----|


                                  Cm7         N.C.
        TP                                     TPTP
  Q  E  E E  E  e  E   W          S s E Q  Q   E E
|--------------------|----------|------------------|
|--------------------|----------|-8-8--------------|
|---------8----10----|----------|-8-8--------------|
|------10---10----10-|----------|-8-8---------10-8-|
|---------6-----8----|----------|------------------|
|-------8----8-----8-|----------|--------------8-6-|


                                     CmN.C.
                       TP         TP
  e E  E  E  E T T  S  E. S   Q   Q  e  E E  E    +E  E  S  S E S s E Q
|---------------------------|------------------|--------------------------|
|---------------------------|--------8---------|------------------8-------|
|-8---10--------------------|--------8----8----|-----------20-----8-------|
|--------10-10-9-9s10-10----|----10--8-10---10-|-(10)---20-20-------------|
|-6----8--------------------|-------------6----|--------------------------|
|---------8--8-7-7s=8--8----|-----8-----8----8-|--(8)---------------------|


  Q  S  S E E  E E  E    a  E  Q.    +Q.    E
|---------------------|-----------------------|
|---------------------|-------11----(11)------|
|----------------8-10-|-10s12--------------11s|
|------13-----10------|--------8-----(8)------|
|----------------6--8-|--8s10---------------9s|
|--------------8------|-----------------------|


                                 Cm7 Dm
   Q  E  E E  E E S  S    E E Q  E E  e E
|----------------------|-------------10---|
|----------------------|---------8---10---|
|-10-------8-10--------|---------8---10---|
|-------10----------10-|-10------8---10---|
|--8-------6--8--------|------------------|
|--------8--------8--8-|--8---------------|


  Cm7 N.C.
      |--3--|  |--3--|
  e E S  S  s  S  S  S e  E  e E
|--------------------------------|
|-8------------------------------|
|-8--------------------8----10---|
|-8---8h10-10-10-10-10---10------|
|--------------------------------|
|--------------------------------|


                     F6   Gb6  F6    N.C.   F6      N.C.
                                                    |-3-|
   a  E  Q.    +E. S  E S  S    Q.    E S E  S  +S  T T T  e
|--------------------10---11s|=10-----------10-(10)-8--------|
|-------11----(11)---10---11s|=10-------8---10-(10)---8------|
|-10s12--------------10---11s|=10-------8---10-(10)-----8----|
|----------------------------|-------10-------------------10-|
|----------------------------|-------------------------------|
|----------------------------|-------------------------------|


   e E E  E   H       e E  E E  Q      +E  E
|-------------------|------------------------|
|-------------------|------------------------|
|-------------8-----|-8------8-10b12r=(10)-8-|
|-10-----10-(10)----|-----10-----------------|
|-------------------|------------------------|
|-------------------|------------------------|


                 H.=H
   W              +Q   E  E  E  S  S  +S  S  S  S
|--------------|-----------------------------------|
|--------------|------------11---------------------|
|-10b12r=======|=(10)--8-------11s10-(10)-8--------|
|--------------|---------10-----------------10p(8)-|
|--------------|-----------------------------------|
|--------------|-----------------------------------|


                                      C7+9
  E  E  S  S e  S  S e  E E    e E Q   H
|---11----------------------|---------------|
|------13-11-8-------8------|---------!8----|
|--------------11s10-8------|---------!8----|
|----------------------10-8-|-10------!8----|
|---------------------------|---------!7----|
|---------------------------|---------!8----|


            Cm9
                  ~~~~~~~~~~~~~~~~~
    Q  a  E   E  +Q     Q      +W
|-!10-------!15-(15)---15---|-(15)----*|
|-!-8-------!15-(15)---15---|-(15)----*|
|-!-8--8----!14-(14)--(14)--|-(14)----*|
|------8s13-!13-(13)--(13)--|-(13)----*|
|---------------------------|---------*|
|---------------------------|---------*|


Duration Legend
---------------
W - whole; H - half; Q - quarter; E - 8th; S - 16th; T - 32nd; X - 64th; a - acciaccatura
+ - note tied to previous; . - note dotted; .. - note double dotted
Uncapitalized letters represent notes that are staccato (1/2 duration)
Irregular groupings are notated above the duration line
Duration letters will always appear directly above the note/fret number it represents the
duration for.  Duration letters with no fret number below them represent rests.  Multi-
bar rests are notated in the form Wxn, where n is the number of bars to rest for.  Low
melody durations appear below the staff

Tablature Legend
----------------
 h   - hammer-on
 p   - pull-off
 b   - bend
 pb  - pre-bend
 r   - bend release (if no number after the r, then release immediately)
 /\  - slide into or out of (from/to "nowhere")
 s   - legato slide
 S   - shift slide
  - natural harmonic
[n]  - artificial harmonic
n(n) - tapped harmonic
 ~   - vibrato
 tr  - trill
 T   - tap
 TP  - trem. picking
 PM  - palm muting
\n/  - tremolo bar dip; n = amount to dip
 \n  - tremolo bar down
 n/  - tremolo bar up
/n\  - tremolo bar inverted dip
 =   - hold bend; also acts as connecting device for hammers/pulls
 <>  - volume swell (louder/softer)
 x   - on rhythm slash represents muted slash
 o   - on rhythm slash represents single note slash

Misc Legend
-----------
 |  - bar
||  - double bar
||o - repeat start
o|| - repeat end
*|  - double bar (ending)
 :  - bar (freetime)
 $  - Segno
 &  - Coda
Tempo markers -  = BPM(8/16=s8/s16), where s8 = swing 8ths, s16 = swing 16ths
Добавлено: 28.07.2015
Другие материалы по этой песне:

Страница создана 20.09.2013
http://primanota.ru/stevie-ray-vaughan-and-double-trouble/chitlins-con-carne-chords.htm
Привет, Гость.
Предлагаем пройти революционный курс по гитаре.
Подарок от PrimaNota.Ru, забирай!