PrimaNota.ru - самый крупный в мире бесплатный архив песенных текстов, аккордов, табулатур и нот


Stevie Ray Vaughan And Double Trouble - Rude Mood - бас-таба, видео

Регистрация Запомнить меня
Войти через:  Facebook Google Twitter Vk Yandex Mail.ru

Stevie Ray Vaughan And Double Trouble - Rude Mood - бас-таба, видео

Печатать
Просмотров: 139
Авторы: Stevie Ray Vaughan

Tabbed By: Thomas Lasswell Rutherford I

Artist: Stevie Ray Vaughan and Double Trouble
Song Name: Rude Mood
Album: Texas Flood
Track #: 6

Song Structure:
The song starts out with the main riff introduced by the guitar; the bass notes are
quickly with muted notes in between, resulting in a swung, "rude" feel. The bass guitar and
are introduced after the introduction, establishing the beat that continues to the end. 
song can be broken up into many sections, separated by each 12-bar blues progression,
most sections ending in the same fashion as the beginning riff. Stevie Ray Vaughan's 
sense of timing and precision in his technique allows him to drive seemingly effortlessly 
his solo.


(Main Riff) (starts at (0:22)
G|-------------------|-------------------|---------2---------|
D|---------2---------|---------2---------|-----2-4---4-2-----|
A|-----2-4---4-2-----|-----2-4---4-2-----|-0-4-----------4---|
E|-0-4----------4----|-0-4-----------4---|-------------------|

G|-------------------|-------------------|-------------------|
D|---------2---------|-------------------|---------2---------|
A|-----2-4---4-2-----|-----0-1-2-0-------|-----2-4---4-2-----|
E|-0-4----------4----|-2-4---------4-2---|-0-4-----------4---|

And you keep going on that same lick for about the whole song intill tou reach (3:21)

G|-------------------|
D|-------------------|
A|-------------------|
E|--5---------3------|

G|-------------------|
D|-------------------|
A|-------------------|
E|3h5----3-----------|

And then back to the main riff

Hey it sound like the Vonage commercial? douse it not?
Добавлено: 10.03.2012
Другие материалы по этой песне:

Страница создана 22.02.2012
http://primanota.ru/stevie-ray-vaughan-and-double-trouble/rude-mood-chords.htm
Привет, Гость.
Предлагаем пройти революционный курс по гитаре.
Подарок от PrimaNota.Ru, забирай!