PrimaNota.ru - самый крупный в мире бесплатный архив песенных текстов, аккордов, табулатур и нот


Stevie Ray Vaughan And Double Trouble - Texas Flood - таба, видео

Регистрация Запомнить меня
Войти через:  Facebook Google Twitter Vk Yandex Mail.ru

Stevie Ray Vaughan And Double Trouble - Texas Flood - таба, видео

Печатать
Просмотров: 148
Авторы музыки: Larry Davis
Авторы текста: Larry Davis
-------------------------------------------------------------------------------
                             TEXAS FLOOD – Stevie Ray Vaughan
-------------------------------------------------------------------------------

Tuning: Down half step

h = hammer on
p = pull-off
b = bend
/ = slide up
\ = slide down
~ = vibrato

This tab goes until the lyrics begin in the song. Listen to the song for timing. Use 
vibrato as needed.

|---------3---5-----------3----3-----------------8---10-----------/15-/15--/15-15\--|
|---------3---5-3---------3h5--3h5---------------8---10--8--------/15-/15--/15-15\--|
|---------3h4-5-3h4-------4----4------------7-10-8h9-10--8h9------/15-/15--/15-15\--|
|----2-5-------------5------------------/10-------------------10--/14-/14--/14------|
|--5--------------------------------------------------------------------------------|
|-----------------------------------------------------------------------------------|

|--------3--------5--3h4p3----3--6b8-6b7---3----------------------------------------|
|------3---6b7-3------------6---------------3---------------------------------------|
|--5b6-----------------------------------------5b6--3b5r3---------3b4----------5~~~-|
|------------------------------------------------------------5--5-----5--------4~~~-|
|----------------------------------------------------------------------3--4--5------|
|-----------------------------------------------------------------------------------|

|----8b10-6---------6------------------------------6-8b10-6b8-6------------8b10-8b10-|
|8-8--------8-8-8-8---8--3---------------------8-8---------------8--8--8-8-----------|
|--------------------------5b7r5p3b4r3-----------------------------------------------|
|------------------------------------------------------------------------------------|
|------------------------------------------------------------------------------------|
|---------------------------------------5/15\3---------------------------------------|

|--8b10--8b9-6----------6b7-7b8-7b8-8b10--6b8-6--------------------------3---15\----|
|-------------8--8-8---------------------------8--6p3------------------------15\----|
|----------------------------------------------------5b7r5p3---3b5-5b7----3--15\----|
|------------------------------------------------------------5----------------------|
|-----------------------------------------------------------------------------------|
|-----------------------------------------------------------------------------------|

|-------6--8b10-8b10-8-b10---6------3-6b7-8b10-6b8--6-------------------------3-----|
|--8--8------------------------8--5-------------------8-----6--3--------------------|
|----------------------------------------------------------------5b7r5---5-3-----3--|
|----------------------------------------------------------------------5------------|
|-----------------------------------------------------------------------------------|
|-----------------------------------------------------------------------------------|



|---------3--3-3h5-3h5-4p3--------3-----------------------------3------------------|
|-0-----3--6-3--------------6p3------6p3---------------3-3-3-6b8-------------------|
|--5b6------------------------------------5b7----5p3-5-------------5b7-5b7--5p3----|
|-------------------------------------------------------------------------------5--|
|----------------------------------------------------------------------------------|
|----------------------------------------------------------------------------------|

|--------3-------------------------------------------------------------------|
|------3---6b7---3-----------------------------------------------------------|
|--3h4-------------5b6--5-3b4---------------------------------5~~~-----------|
|-----------------------------5-3---------------3h5p3---------4~~~-----------|
|---------------------------------5-4-3h4p3------------3-4-5-----------------|
|-------------------------------------------6-3------------------------------|
Добавлено: 24.02.2012
Другие материалы по этой песне:

Страница создана 24.02.2012
http://primanota.ru/stevie-ray-vaughan-and-double-trouble/texas-flood-chords.htm
Привет, Гость.
Предлагаем пройти революционный курс по гитаре.
Подарок от PrimaNota.Ru, забирай!