PrimaNota.ru - самый крупный в мире бесплатный архив песенных текстов, аккордов, табулатур и нот


Steven Wilson - Salvaging - таба, видео

Регистрация Запомнить меня
Войти через:  Facebook Google Twitter Vk Yandex Mail.ru

Steven Wilson - Salvaging - таба, видео

Печатать
Просмотров: 105
-----------------------------------------------------------------------------------
                                                 SALVAGING - Steven Wilson
-----------------------------------------------------------------------------------
Tabbed by: Simon Brekke
E-mail: simon_brekke@hotmail.com

Tuning: Standard

Note that the rythm for the main riff may not be 100% spot on. 

0:15 Rythm Guitar Main riff                               |
E|0-0-0--0--0-0-0-0--0--0-0-0-0-0-0--0--0-0-0-0--0--0-0-0-|
A|7-7-7--7--7-7-7-7--7--7-7-7-7-7-7--7--7-7-7-10-10-101010|
D|--------------------------------------------------------|
G|--------------------------------------------------------|
B|--------------------------------------------------------|
e|--------------------------------------------------------|

 /^^^^^^^^^^^^^^^^ Repeat this measure 6x ^^^^^^^^^^^^^^^\ 
|0-0-0--0--0-0-0-0--0--0-0-0-0-0-0--0--0-0-0-0--0--0-0-0-|
|107-7--7--7-7-7-7--7--7-7-7-7-7-7--7--7-7-7-10-10-101010|
|--------------------------------------------------------|
|--------------------------------------------------------|
|--------------------------------------------------------|
|--------------------------------------------------------|

After 8 measures at 1:17
E|8-8-8--8--8-8-8-8--8--8-8-8-8-8-8--8--8-8-8-8--8--8-8-8-|
A|--------------------------------------------------------|
D|--------------------------------------------------------|
G|--------------------------------------------------------|
B|--------------------------------------------------------|
e|--------------------------------------------------------|

|6-6-6--6--6-6-6-6--6--6-6-6-6-6-6--6--6-6-6-6--6--6-6-6-|
|--------------------------------------------------------|
|--------------------------------------------------------|
|--------------------------------------------------------|
|--------------------------------------------------------|
|--------------------------------------------------------|


Rythm guitar plays main riff again at 1:32

1:32 Heavily distorted guitar
    E7                                C7                       Bb7
E|----------------|               E|----------------|      E|----------------|
A|----------------|               A|3---------------|      A|1---------------|
D|:2-----------x6:|               D|--5-------------|      D|--3-------------| Play E7 2 times 
G|:--4-----------:|               G|-------3--------|      G|-------1--------| at 2:35
B|-------3--------|               B|----5-----------|      B|----3-----------|
e|----4-----------|               e|----------------|      e|----------------|

2:35 Heavy rythm guitar
E|0---0--0--0-0-0---0-0--0-0-0-0---0--0--0-0-0--5--6--7----|
A|5h7-7--7--7-7-5h7-7-7--7-7-7-5h7-7--7--7-7-7----------5--|
D|--------------------------------------------------------5| Repeat until 3:52
G|---------------------------------------------------------|
B|---------------------------------------------------------|
e|---------------------------------------------------------|

3:52 Heavy rythm guitar
|  E|5-5-5--5--5-5-5-5-5--5--5-5--8-8-8--8--8-8-8-8-8--8--8-8-|
|  A|7-7-7--7--7-7-7-7-7--7--7-7--101010-10-1010101010-10-1010|
|: D|---------------------------------------------------------|
|: G|---------------------------------------------------------|
|  B|---------------------------------------------------------|
|  e|---------------------------------------------------------|

   E|0---0--0--0-0-0---0-0--0-0-0-0---0--0--0-0-0--5--6--7----|  |
   A|5h7-7--7--7-7-5h7-7-7--7-7-7-5h7-7--7--7-7-7----------5--|  |
   D|--------------------------------------------------------5| :|Repeat once
   G|---------------------------------------------------------| :|
   B|---------------------------------------------------------|  |
   e|---------------------------------------------------------|  |

4:23 Heavy rythm guitar
E|0---0--0----------|------------------------------------|
A|5h7-7--7-~Let ring|------------------------------------|
D|------------------|------------   At 4:30   -----------|
G|------------------|------------------------------------|
B|------------------|--------------------------12-12-----|
e|------------------|-------------------------------12-12|

~~~~~~~~~~~~~~~~~~~~~~~~~~~~~~~~~~~~~~~~~~~~~~~~~~~~~~~~~~~~~~~~

Thank you for looking at my tab, please rate it a 5! Helps a lot :)
Contact me if you have issues. 
Добавлено: 19.11.2013
Другие материалы по этой песне:
  • Аккорды и текст

Страница создана 11.11.2013
http://primanota.ru/steven-wilson/salvaging-chords.htm
Привет, Гость.
Предлагаем пройти революционный курс по гитаре.
Подарок от PrimaNota.Ru, забирай!