PrimaNota.ru - самый крупный в мире бесплатный архив песенных текстов, аккордов, табулатур и нот


Steven Wilson - Raider Ii - таба, видео

Регистрация Запомнить меня
Войти через:  Facebook Google Twitter Vk Yandex Mail.ru

Steven Wilson - Raider Ii - таба, видео

Печатать
Просмотров: 110
So, here's the tab to Steven's beast song... REALLY good song, I hope you enjoy the tab...
I sure as hell did enjoy tabbing it.

2:50
e||-----------------------------||
B||-----------------------------||
G||o---------------------------o||
D||o---------------------------o|| x4
A||-----------------------------||
E||--0---0---3--0-3-0--3-0-3----||


3:52
e|---------6----------------4---|
B|-8--8-8--6--------7--7-7--4---|
G|-9--9-9--7--------7--7-7--5---|
D|-9--9-9--8--------7--7-7--6---|
A|-7--7-7--8--------5--5-5--6---|
E|---------6----------------4---|

e|---------6----------------4-------1---|
B|-8--8-8--6--------7--7-7--4-------1---|
G|-9--9-9--7--------7--7-7--5-------2---|
D|-9--9-9--8--------7--7-7--6-------3---|
A|-7--7-7--8--------5--5-5--6-------3---|
E|---------6----------------4-------1---|

e||-----------------------------||
B||-----------------------------||
G||o---------------------------o||
D||o---------------------------o|| x4
A||-----------------------------||
E||--0---0---3--0-3-0--3-0-3----||


Not entirely sure about these chords, but I BELIEVE them to be correct, 
at least correct enough to sound good... listen to the song for timing
4:41
e||-------------------------||
B||--3--3--3--2-2--2--2-2---||
G||o-2--2--2--2-2--2--2-2--o||
D||o-2--2--2--2-2--2--2-2--o||
A||--0--0--0--0-0--0--0-0---|| x8
E||-------------------------||

e||--3--3--3--2-2--2--2-2---||
B||--3--3--3--3-3--3--3-3---||
G||o-0--0--0--0-0--0--0-0--o||
D||o-0--0--0--0-0--0--0-0--o||
A||--2--2--2----------------|| x4
E||--3--3--3--3-3--3--3-3---||

e||-------------------------||
B||--3--3--3--2-2--2--2-2---||
G||o-2--2--2--2-2--2--2-2--o||
D||o-2--2--2--2-2--2--2-2--o||
A||--0--0--0--0-0--0--0-0---|| x4
E||-------------------------||

e||--3--3--3--2-2--2--2-2---||
B||--3--3--3--3-3--3--3-3---||
G||o-0--0--0--0-0--0--0-0--o||
D||o-0--0--0--0-0--0--0-0--o||
A||--2--2--2----------------|| x4
E||--3--3--3--3-3--3--3-3---||

e||-------------------------||
B||--3--3--3--2-2--2--2-2---||
G||o-2--2--2--2-2--2--2-2--o||
D||o-2--2--2--2-2--2--2-2--o||
A||--0--0--0--0-0--0--0-0---|| x4
E||-------------------------||

e||--3--3--3--2-2--2--2-2---||
B||--3--3--3--3-3--3--3-3---||
G||o-0--0--0--0-0--0--0-0--o||
D||o-0--0--0--0-0--0--0-0--o||
A||--2--2--2----------------|| x4
E||--3--3--3--3-3--3--3-3---||

e||--3--3--3--2-2--2--2-2---||
B||--1--1--1--1-1--1--1-1---||
G||o-2--2--2--2-2--2--2-2--o||
D||o-2--2--2--2-2--2--2-2--o||
A||--0--0--0--0-0--0--0-0---|| x4
E||-------------------------||

e|-2--2--2-2-3--3--3-3-7--7--7-7--7-7--7--7-7---|
B|-3--3--3-3-3--3--3-3-7--7--7-7--7-7--7--7-7---|
G|-2--2--2-2-0--0--0-0-8--8--8-8--8-8--8--8-8---|
D|-0--0--0-0-2--2--2-2-9--9--9-9--9-9--9--9-9---|
A|-----------3--3--3-3-9--9--9-9--9-9--9--9-9---|
E|---------------------7--7--7-7--7-7--7--7-7---|

e|-2--2--2-2-0--0--0-0-7--7--7-7--7-7--7--7-7---|
B|-3--3--3-3-1--1--1-1-7--7--7-7--7-7--7--7-7---|
G|-2--2--2-2-2--2--2-2-8--8--8-8--8-8--8--8-8---|
D|-0--0--0-0-2--2--2-2-9--9--9-9--9-9--9--9-9---|
A|-----------0--0--0-0-9--9--9-9--9-9--9--9-9---|
E|---------------------7--7--7-7--7-7--7--7-7---|

e|-2--2--2-2-3--3--3-3-7--7--7-7--7-7--7--7-7--7--7--7-7--7-7--7--7-7---|
B|-3--3--3-3-3--3--3-3-7--7--7-7--7-7--7--7-7--7--7--7-7--7-7--7--7-7---|
G|-2--2--2-2-0--0--0-0-8--8--8-8--8-8--8--8-8--8--8--8-8--8-8--8--8-8---|
D|-0--0--0-0-2--2--2-2-9--9--9-9--9-9--9--9-9--9--9--9-9--9-9--9--9-9---|
A|-----------3--3--3-3-9--9--9-9--9-9--9--9-9--9--9--9-9--9-9--9--9-9---|
E|---------------------7--7--7-7--7-7--7--7-7--7--7--7-7--7-7--7--7-7---|


7:25
e|---------6----------------4---|
B|-8--8-8--6--------7--7-7--4---|
G|-9--9-9--7--------7--7-7--5---|
D|-9--9-9--8--------7--7-7--6---|
A|-7--7-7--8--------5--5-5--6---|
E|---------6----------------4---|

e|---------6----------------4-------1---|
B|-8--8-8--6--------7--7-7--4-------1---|
G|-9--9-9--7--------7--7-7--5-------2---|
D|-9--9-9--8--------7--7-7--6-------3---|
A|-7--7-7--8--------5--5-5--6-------3---|
E|---------6----------------4-------1---|

e||-----------------------------||
B||-----------------------------||
G||o---------------------------o||
D||o---------------------------o|| x2
A||-----------------------------||
E||--0---0---3--0-3-0--3-0-3----||


8:03
e||----------------------------------------------------||
B||----------------------------------------------------||
G||O--------------------------------------------------O||
D||O--------------------------------------------------O|| x8
A||----------7h8---------5h7---------4h5---------3h5---||
E||--0h7h8p0-----0h5h7p0-----0h4h5p0-----0h3h5p0-------||

e||------------------------------------------------------||
B||------------------------------------------------------||
G||O----------------------------------------------------O||
D||O---------7h8----------8h10---------5h7---------6h8--O|| x4
A||--0h7h8p0-----0h8h10p0------0h5h7p0-----0h6h8p0-------||
E||------------------------------------------------------||

e||----------------------------------------------------||
B||----------------------------------------------------||
G||O--------------------------------------------------O||
D||O--------------------------------------------------O|| x4
A||----------7h8---------5h7---------4h5---------3h5---||
E||--0h7h8p0-----0h5h7p0-----0h4h5p0-----0h3h5p0-------||


Again, not entirely sure about this chords, but they sound pretty good to me
e||-------------------------------------------------------|
B||-------------------------------------------------------|
G||o-15--15-15-15--10--10-10-10--13--13-13-13--8--8-8-8---|
D||o-14--14-14-14--9---9--9--9---12--12-12-12--7--7-7-7---|
A||--13--13-13-13--8---8--8--8---11--11-11-11--6--6-6-6---|
E||-------------------------------------------------------|

e|---------------------------------------------||
B|---------------------------------------------||
G|----9--9-9-9--9--9-9-9--9--9-9-9--9--9-9-9--o||
D|----8--8-8-8--8--8-8-8--8--8-8-8--8--8-8-8--o||
A|----7--7-7-7--7--7-7-7--7--7-7-7--7--7-7-7---||
E|---------------------------------------------||

e||-------------------------------------------------------|
B||-------------------------------------------------------|
G||o--9--9-9-9--12--12-12-12--14--14-14-14--15--15-15-15--|
D||o--9--9-9-9--12--12-12-12--14--14-14-14--15--15-15-15--|
A||---7--7-7-7--10--10-10-10--12--12-12-12--13--13-13-13--|
E||-------------------------------------------------------|

e|------------------------------------------------------||
B|------------------------------------------------------||
G|-16--16-16-16--19--19-19-19--9--9-9-9--12--12-12-12--o||
D|-16--16-16-16--19--19-19-19--9--9-9-9--12--12-12-12--o||
A|-14--14-14-14--17--17-17-17--7--7-7-7--10--10-10-10---||
E|------------------------------------------------------||

e||----------------------------------------------------||
B||----------------------------------------------------||
G||O--------------------------------------------------O||
D||O--------------------------------------------------O|| x4
A||----------7h8---------5h7---------4h5---------3h5---||
E||--0h7h8p0-----0h5h7p0-----0h4h5p0-----0h3h5p0-------||

e||------------------------------------------------------||
B||------------------------------------------------------||
G||O----------------------------------------------------O||
D||O---------7h8----------8h10---------5h7---------6h8--O|| x3
A||--0h7h8p0-----0h8h10p0------0h5h7p0-----0h6h8p0-------||
E||------------------------------------------------------||

e|------------------------------------------|
B|------------------------------------------|
G|------------------------------------------|
D|---------7h8----------8h10---------5h7----|
A|-0h7h8p0-----0h8h10p0------0h5h7p0-----6--|
E|------------------------------------------|

*Insert super incredible jazzy jam*

11:07
e||-------------------------------------------------------|
B||-------------------------------------------------------|
G||o-15--15-15-15--10--10-10-10--13--13-13-13--8--8-8-8---|
D||o-14--14-14-14--9---9--9--9---12--12-12-12--7--7-7-7---|
A||--13--13-13-13--8---8--8--8---11--11-11-11--6--6-6-6---|
E||-------------------------------------------------------|

e|---------------------------------------------||
B|---------------------------------------------||
G|----9--9-9-9--9--9-9-9--9--9-9-9--9--9-9-9--o||
D|----8--8-8-8--8--8-8-8--8--8-8-8--8--8-8-8--o||
A|----7--7-7-7--7--7-7-7--7--7-7-7--7--7-7-7---||
E|---------------------------------------------||

e||-------------------------------------------------------|
B||-------------------------------------------------------|
G||o--9--9-9-9--12--12-12-12--14--14-14-14--15--15-15-15--|
D||o--9--9-9-9--12--12-12-12--14--14-14-14--15--15-15-15--|
A||---7--7-7-7--10--10-10-10--12--12-12-12--13--13-13-13--|
E||-------------------------------------------------------|

e|------------------------------------------------------||
B|------------------------------------------------------||
G|-16--16-16-16--19--19-19-19--9--9-9-9--12--12-12-12--o||
D|-16--16-16-16--19--19-19-19--9--9-9-9--12--12-12-12--o||
A|-14--14-14-14--17--17-17-17--7--7-7-7--10--10-10-10---||
E|------------------------------------------------------||

e||----------------------------------------------------||
B||----------------------------------------------------||
G||O--------------------------------------------------O||
D||O--------------------------------------------------O|| x4
A||----------7h8---------5h7---------4h5---------3h5---||
E||--0h7h8p0-----0h5h7p0-----0h4h5p0-----0h3h5p0-------||

e||------------------------------------------------------||
B||------------------------------------------------------||
G||O----------------------------------------------------O||
D||O---------7h8----------8h10---------5h7---------6h8--O|| x3
A||--0h7h8p0-----0h8h10p0------0h5h7p0-----0h6h8p0-------||
E||------------------------------------------------------||

e|------------------------------------------|
B|------------------------------------------|
G|------------------------------------------|
D|---------7h8----------8h10---------5h7----|
A|-0h7h8p0-----0h8h10p0------0h5h7p0-----6--|
E|------------------------------------------|


14:35
e||-----------0-----------0-----------0-----------0----|
B||-------6-----6-----6-----6-----6-----6-----6-----6--|
G||o----5---5-------5---5-------5---5-------5---5------|
D||o--6-----------6-----------6-----------6------------|
A||----------------------------------------------------|
E||----------------------------------------------------|
                                                          
e|---------0-----------0-----------0-----------0-----||
B|-----6-----6-----6-----6-----6-----6-----6-----6---||
G|---4---4-------4---4-------4---4-------4---4------o||
D|-6-----------6-----------6-----------6------------o||
A|---------------------------------------------------||
E|---------------------------------------------------||

e||-----------0-----------0-----------0-----------0----|
B||-------3-----3-----3-----3-----3-----3-----3-----3--|
G||o----2---2-------2---2-------2---2-------2---2------|
D||o--3-----------3-----------3-----------3------------|
A||----------------------------------------------------|
E||----------------------------------------------------|
                                                           
e|---------0-----------0-----------0-----------0-----||
B|-----3-----3-----3-----3-----3-----3-----3-----3---||
G|---1---1-------1---1-------1---1-------1---1------o||
D|-2-----------2-----------2-----------2------------o||
A|---------------------------------------------------||
E|---------------------------------------------------||

e||-----------0-----------0-----------0-----------0----|
B||-------6-----6-----6-----6-----6-----6-----6-----6--|
G||o----5---5-------5---5-------5---5-------5---5------|
D||o--6-----------6-----------6-----------6------------|
A||----------------------------------------------------|
E||----------------------------------------------------|
                                                          
e|---------0-----------0-----------0-----------0-----||
B|-----6-----6-----6-----6-----6-----6-----6-----6---||
G|---4---4-------4---4-------4---4-------4---4------o||
D|-6-----------6-----------6-----------6------------o||
A|---------------------------------------------------||
E|---------------------------------------------------||

e||-----------0-----------0-----------0-----------0----|
B||-------3-----3-----3-----3-----3-----3-----3-----3--|
G||o----2---2-------2---2-------2---2-------2---2------|
D||o--3-----------3-----------3-----------3------------|
A||----------------------------------------------------|
E||----------------------------------------------------|
                                                           
e|---------0-----------0-----------0-----------0-----||
B|-----3-----3-----3-----3-----3-----3-----3-----3---||
G|---1---1-------1---1-------1---1-------1---1------o||
D|-2-----------2-----------2-----------2------------o||
A|---------------------------------------------------||
E|---------------------------------------------------||

e||-----------0-----------0-----------0-----------0----|
B||-------6-----6-----6-----6-----6-----6-----6-----6--|
G||o----5---5-------5---5-------5---5-------5---5------|
D||o--6-----------6-----------6-----------6------------|
A||----------------------------------------------------|
E||----------------------------------------------------|

e|---------0-----------0-----------0-----------0-----||
B|-----6-----6-----6-----6-----6-----6-----6-----6---||
G|---4---4-------4---4-------4---4-------4---4------o||
D|-6-----------6-----------6-----------6------------o||
A|---------------------------------------------------||
E|---------------------------------------------------||

e||-----------0-----------0-----------0-----------0----|
B||-------0-----0-----0-----0-----0-----0-----0-----0--|
G||o----5---5-------5---5-------5---5-------5---5------|
D||o--7-----------7-----------7-----------7------------|
A||----------------------------------------------------|
E||----------------------------------------------------|

e|---------7-----------7-----------7-----------7-----||
B|-----0-----0-----0-----0-----0-----0-----0-----0---||
G|---5---5-------5---5-------5---5-------5---5------o||
D|-6-----------6-----------6-----------6------------o||
A|---------------------------------------------------||
E|---------------------------------------------------||


Verse
e||-----------0-----------0-----------0-----------0----|
B||-------6-----6-----6-----6-----6-----6-----6-----6--|
G||o----5---5-------5---5-------5---5-------5---5------|
D||o--6-----------6-----------6-----------6------------|
A||----------------------------------------------------|
E||----------------------------------------------------|

e|---------0-----------0-----------0-----------0-----||
B|-----6-----6-----6-----6-----6-----6-----6-----6---||
G|---4---4-------4---4-------4---4-------4---4------o||
D|-6-----------6-----------6-----------6------------o||
A|---------------------------------------------------||
E|---------------------------------------------------||

e||-----------0-----------0-----------0-----------0----|
B||-------0-----0-----0-----0-----0-----0-----0-----0--|
G||o----5---5-------5---5-------5---5-------5---5------|
D||o--7-----------7-----------7-----------7------------|
A||----------------------------------------------------|
E||----------------------------------------------------|

e|---------7-----------7-----------7-----------7-----||
B|-----0-----0-----0-----0-----0-----0-----0-----0---||
G|---5---5-------5---5-------5---5-------5---5------o||
D|-6-----------6-----------6-----------6------------o||
A|---------------------------------------------------||
E|---------------------------------------------------||


Switch to overdrive
e||-----------0-----------0-----------0-----------0----|
B||-------6-----6-----6-----6-----6-----6-----6-----6--|
G||o----5---5-------5---5-------5---5-------5---5------|
D||o--6-----------6-----------6-----------6------------|
A||----------------------------------------------------|
E||----------------------------------------------------|
                                                          
e|---------0-----------0-----------0-----------0-----||
B|-----6-----6-----6-----6-----6-----6-----6-----6---||
G|---4---4-------4---4-------4---4-------4---4------o||
D|-6-----------6-----------6-----------6------------o||
A|---------------------------------------------------||
E|---------------------------------------------------||

e||---------------0----------------0----------------0----------------0------|
B||---------15------15-------15------15-------15------15-------15------15---|
G||o-----14----14---------14----14---------14----14---------14----14--------|
D||o--15---------------15---------------15---------------15-----------------|
A||-------------------------------------------------------------------------|
E||-------------------------------------------------------------------------|
                                                           
e|--------------0----------------0----------------0----------------0------||
B|--------15------15-------15------15-------15------15-------15------15---||
G|-----13----13---------13----13---------13----13---------13----13-------o||
D|--14---------------14---------------14---------------14----------------o||
A|------------------------------------------------------------------------||
E|------------------------------------------------------------------------||

e||------------5-----------5-----------5-----------5----|
B||--------7-----7-----7-----7-----7-----7-----7-----7--|
G||o-----5---5-------5---5-------5---5-------5---5------|
D||o---5-----------5-----------6-----------7------------|
A||-----------------------------------------------------|
E||-----------------------------------------------------|
                                                                    
e|----------8-------------8-------------8--------------8------||
B|-----10-----10-----10-----10-----10-----10------10-----10---||
G|---8----8--------8----8--------8----8---------8----8-------o|| 
D|-8-------------8-------------9-------------10--------------o|| x4
A|------------------------------------------------------------||
E|------------------------------------------------------------||

e||------------------------------------||
B||------------------------------------||
G||o----------------------------------o||
D||o----------------------------------o|| x2
A||------------------------------------||
E||--0---1---4---5---7---8---11---12---||

e||-------------------------------------||
B||-------------------------------------||
G||o-----------------------------------o||
D||o-2---3---6---7---9---10---13---14--o|| x4
A||--1---2---5---6---8---9----12---13---||
E||--0---1---4---5---7---8----11---12---||

Slowing down...
e|------------------------------------|
B|------------------------------------|
G|------------------------------------|
D|--2---3---6---7---9---10---13-------|
A|--1---2---5---6---8---9----12---7---|
E|--0---1---4---5---7---8----11---0---|

And that's it! Hope you enjoy this, don't forget to rate, and post any suggestions you might have!
Добавлено: 12.11.2013
Другие материалы по этой песне:
  • Аккорды и текст

Страница создана 12.11.2013
http://primanota.ru/steven-wilson/raider-ii-chords.htm
Привет, Гость.
Предлагаем пройти революционный курс по гитаре.
Подарок от PrimaNota.Ru, забирай!