PrimaNota.ru - самый крупный в мире бесплатный архив песенных текстов, аккордов, табулатур и нот


Steven Wilson - My Book Of Regrets - таба, видео

Регистрация Запомнить меня
Войти через:  Facebook Google Twitter Vk Yandex Mail.ru

Steven Wilson - My Book Of Regrets - таба, видео

Печатать
Просмотров: 161
Уроки эстрадного вокала в Санкт-Петербурге
-------------------------------------------------------------------------------
                             My Book of Regrets - Steven Wilson
-------------------------------------------------------------------------------

Tabbed by: Bobbits

Tuning EADGBe

Heyup guys. Guitar solo by Dave finally added. It's intense. Fairly sure everything is 
accurate but post a comment if you think somethings wrong! Cheers. Fantastic song.

First tab using this template, forgive the format if its a bit naff.



Verse 1. Main Riff, have a listen to get the rhythm. 
                                           x4             x2
e|---0-00-x-0-0-0-0-x-----0-00-x-0-0-0-0----||----2-3-2---|
B|---3-33-x-3-3-3-3-x-----3-33-x-3-3-3-2----||---3-----3--|
G|---0-00-x-0-0-0-0-x-----0-00-x-0-0-0-0----||--0-------0-|     x2
D|---0-00-x-0-0-0-0-x-----2-22-x-2-2-2-2----||------------|
A|---2-22-x-2-2-2-2-x-0-0------x------------||-3----------|
E|-0------x---------x----------x------------||------------|


Chorus 1
                       2x
e|-0-0-0-0--0-0-0--0~-|-1---0-0---0--0-----1-1--0-0--0~---------|
B|-2-2-2-2--2-2-2--2~-|-1---0-0---1---1----1----0-0--2~---------|
G|-2-2-2-2--2-2-2--2~-|-2---0-0---2--------2--0-0-0--2~---------|
D|-2-2-2-2--1-1-1--0~-|-3---2-2---2--------3----2-2--2~---------|
A|--------------------|-3-x-------0--------3---------0~---------|
E|--------------------|-----------------------------------------|


Verse 2

e|---0-00-x-0-0-0-0-x-----0-00-x-0-0-0-0----|
B|---3-33-x-3-3-3-3-x-----3-33-x-3-3-3-2----|
G|---0-00-x-0-0-0-0-x-----0-00-x-0-0-0-0----|   x2
D|---0-00-x-0-0-0-0-x-----2-22-x-2-2-2-2----|
A|---2-22-x-2-2-2-2-x-0-0------x------------|
E|-0------x---------x----------x------------|


Little guitar lick

e|----------------------------------------------------------------|
B|-13-12----------------------------------------------------------|
G|------12--------------------------------------------------------|
D|--------12-10-9-10--10/12--9---------9-----------5--------------|
A|-----------------------------10--/12---10--5/7------------------|
E|----------------------------------------------------------------|


Verse 2 continued
                                            2x            2x
e|---0-00-x-0-0-0-0-x-----0-00-x-0-0-0-0----||----2-3-2---|
B|---3-33-x-3-3-3-3-x-----3-33-x-3-3-3-2----||---3-----3--|
G|---0-00-x-0-0-0-0-x-----0-00-x-0-0-0-0----||--0-------0-|    
D|---0-00-x-0-0-0-0-x-----2-22-x-2-2-2-2----||------------|
A|---2-22-x-2-2-2-2-x-0-0------x------------||-3----------|
E|-0------x---------x----------x------------||------------|



Chorus 2 

                       2x
e|-0-0-0-0--0-0-0--0~-|-1---0-0---0--0------1-1--0-0--0~---------|
B|-2-2-2-2--2-2-2--2~-|-1---0-0---1---1-----1----0-0--2~---------|
G|-2-2-2-2--2-2-2--2~-|-2---0-0---2----2----2----0-0--2~---------|
D|-2-2-2-2--1-1-1--0~-|-3---2-2---2---------3----2-2--2~---------|
A|------------------~-|-3---------0---------3---------0~---------|
E|--------------------|------------------------------------------|


Instrumental, again listen to the song for the rhythm.

                                         
e|-0-0-0-0-xx-0-0-0-0-xx-0-0-0-0-xx-0-0-0-0-xx-0-0-0-0-xx-0-0-0-0-xx-0-0-0-0-xx-0-0-0-0|
B|-3-3-3-3-xx-3-3-3-3-xx-3-3-3-3-xx-3-3-3-3-xx-4-4-4-4-xx-4-4-4-4-xx-4-4-4-4-xx-4-4-4-4|
G|-4-4-4-4-xx-4-4-4-4-xx-4-4-4-4-xx-4-4-4-4-xx-4-4-4-4-xx-4-4-4-4-xx-4-4-4-4-xx-4-4-4-4|  x4
D|---------xx---------xx---------xx---------xx---------xx---------xx---------xx--------|
A|-------------------------------------------------------------------------------------|
E|-------------------------------------------------------------------------------------|

Variation

e|-2-2-2-2-xx-2-2-2-2-xx-2-2-2-2-xx-2-2-2-2-xx-3-3-3-3-xx-3-3-3-3-xx-3-3-3-3-xx-3-3-3-3|
B|-3-3-3-3-xx-3-3-3-3-xx-3-3-3-3-xx-3-3-3-3-xx-3-3-3-3-xx-3-3-3-3-xx-3-3-3-3-xx-3-3-3-3|
G|-0-0-0-0-xx-0-0-0-0-xx-0-0-0-0-xx-0-0-0-0-xx-0-0-0-0-xx-0-0-0-0-xx-0-0-0-0-xx-0-0-0-0|
D|-------------------------------------------------------------------------------------|
A|-------------------------------------------------------------------------------------|
E|-------------------------------------------------------------------------------------|

Back to normal

e|-0-0-0-0-xx-0-0-0-0-xx-0-0-0-0-xx-0-0-0-0-xx-0-0-0-0-xx-0-0-0-0-xx-0-0-0-0-xx-0-0-0-0-0-0|
B|-3-3-3-3-xx-3-3-3-3-xx-3-3-3-3-xx-3-3-3-3-xx-4-4-4-4-xx-4-4-4-4-xx-4-4-4-4-xx-4-4-4-4-4-4|
G|-4-4-4-4-xx-4-4-4-4-xx-4-4-4-4-xx-4-4-4-4-xx-4-4-4-4-xx-4-4-4-4-xx-4-4-4-4-xx-4-4-4-4-4-4|
D|---------xx---------xx---------xx---------xx---------xx---------xx---------xx------------|
A|-----------------------------------------------------------------------------------------|
E|-----------------------------------------------------------------------------------------|

                             x2
e|------0---------------0-----||-------2---------------3---------|
B|---3----3~---------4-----4~-||---3-----3~--------3-----3-------|
G|----4---------------4-------||----0---------------0------------|
D|-2---------------2----------||---------------------------------|
A|----------------------------||-3--------------3----------------|
E|----------------------------||---------------------------------|


Solo starts after first bar.
 
                             x3
e|------0---------------0-----||-------2---------------3--------------0---------------0-----|
B|---3----3~---------4-----4~-||---3-----3~--------3-----3---------3----3~---------4-----4~-|
G|----4---------------4-------||----0---------------0---------------4---------------4-------|
D|-2---------------2----------||---------------------------------2---------------2----------|
A|----------------------------||-3--------------3-------------------------------------------|
E|----------------------------||------------------------------------------------------------|


                                                 x2
e|-0000--0000--0000--0000--0000--0000--0000--0000-|-2222-2222-2222-2222-3333-3333-3333-3333-|
B|-3333--3333--3333--3333--4444--4444--4444--4444-|-3333-3333-3333-3333-3333-3333-3333-3333-|
G|-4444--4444--4444--4444--4444--4444--4444--4444-|-0000-0000-0000-0000-0000-0000-0000-0000-|
D|-2222--2222--2222--2222--2222--2222--2222--2222-|-----------------------------------------|
A|------------------------------------------------|-----------------------------------------|
E|------------------------------------------------|-----------------------------------------|
                                                  
e|-0000--0000--0000--0000--0000--0000--0000--0000-|
B|-3333--3333--3333--3333--4444--4444--4444--4444-|
G|-4444--4444--4444--4444--4444--4444--4444--4444-|
D|-2222--2222--2222--2222--2222--2222--2222--2222-|
A|------------------------------------------------|
E|------------------------------------------------|
                                                           
Solo 1 - This took a while.

e|--------------------------------------------------------------------------------------|
B|--------------------------------------------------------------------------------------|
G|--------------------------------------------------------8-9-8-7-7--7-6b7-r6-4\--------|
D|-----------------------------------------------------6-9------------------------------|
A|---------------------------6-6-x-6-7-6-6b---------6-7---------------------------------|
E|-14\--7-9-9b10--9b10r9--7----------------7\----4-7------------------------------------|
                            ............ PM
e|------------------------------------11---------------------------------------10-/-14\-|
B|-----------------------------------12-12-14-16-14--------------------------12---------|
G|--4b7r6-4-2-----8----8/11-8\------13------------16-15-14-13-12-11-----12-14-----------|
D|-------------/6---6----------------------------------------------14-12----------------|
A|--------------------------------------------------------------------------------------|
E|--------------------------------------------------------------------------------------|

e|-/10\5-3-2-/10\-3/6\3-------2-3-5-----0-0--0-0--0-0--0-0------------------------------|
B|----------------------5-3-5----------/8-8--7-7-/8-8--7-7------------------------------|
G|--------------------------------------------------------------------------------------|
D|---------------------------------------------------------9-7-------------7------------|
A|------------------------------------------------------------10-9-7-9--10--------------|
E|--------------------------------------------------------------------------------------|
                                                               ............PM
e|----------------------12-14b16-16r14-12---------12-14---------------------------------|
B|-------5-7p5-5-5h7/9-12------------------14b16----------16r14\12-12\------------------|
G|------4-------------------------------------------------------------------------------|
D|---4/6--------------------------------------------------------------------------------|
A|--------------------------------------------------------------------------------------|
E|--------------------------------------------------------------------------------------|


e|-/12-12-14-12---0---------------12--------------------------0-------------------------|
B|--------------15-12-14-12---0-15--15-14-0--12--0-14-15-14-12--------------------------|
G|--------------------------14-------------14--14--------------13-14-13-----------------|
D|---------------------------------------------------------------------16---------------|
A|-----------------------------------------------------------------------14-------------|
E|--------------------------------------------------------------------------------------|
                                                                                        
e|--------------------------------------------------------------------------------------|
B|-12-14-12------------------------------------------------------------8-10-------------|
G|---------14p0-11-9--------8-8-9-8-----------------------------7-9---7-----------------|
D|------------------9---------------9--7--9-7-6--------5-7-----7------------------------|
A|---------------------------------------------7--5-7-5---------------------------------|
E|----------------------------------------------7---------------------------------------|
                                                                      ......PM

e|---10-12-----15-17------17-21--19b21r19--21b23\-----/17-19-20-19b20r19--19b20r19\-----|
B|-10-------------------17--------------------------------------------------------------|
G|----------14--------------------------------------------------------------------------|
D|--------------------------------------------------------------------------------------|
A|--------------------------------------------------------------------------------------|
E|--------------------------------------------------------------------------------------|

                                
e|-15b17r15p14-15b-12-14-15b\------24-----------------22---------------20---------------|
B|---------------------------/21-22--23-23-22-17p16p15--22-20p19\16p15---17\-12p11p10---|
G|--------------------------------------------------------------------------------------|
D|--------------------------------------------------------------------------------------|
A|--------------------------------------------------------------------------------------|
E|--------------------------------------------------------------------------------------|

e|---------14-----------------------12--------------------------------------------------|
B|-15p14p12--------------13p12p11p10---------------------------------------7h9p7--------|
G|-----------14p13p12p10----------------11p8p9----11b13r11b13r11-9h11p9-----------------|
D|---------------------------------------------9-----------------------9---------9------|
A|--------------------------------------------------------------------------------------|
E|--------------------------------------------------------------------------------------|

e|----------9h12p9----12-14-16-17b19-19r17-15-------------------------|
B|-9h12p9-------------------------------------17-17b19----------------|
G|-----------------9--------------------------------------14\---------|
D|--------9-----------------------------------------------14\---------|
A|--------------------------------------------------------------------|
E|--------------------------------------------------------------------|



2nd solo starts on third repeat. 

e|-0000----0000-----------0000----0000-|
B|-3333----3333-----------4444----4444-|
G|-4444----4444-----------4444----4444-| 4x
D|-2222----2222-----------2222----2222-|
A|-------------------------------------|
E|-------------------------------------|


2nd solo

e|-------------------------------------------------------------------------1212~~\---------|
B|-----------------------------------------------------------------------------------------|
G|----------------------------------------7---7h9------------------/9~~\------------\9~~\--|
D|-2-----------------------5---6---7--7/9---9----------------------------------------------|   x2
A|-----------------5---6-7-------------------------------/7~~\-----------------------------|
E|----0--3--5-6-7--------------------------------------------------------------------------|

Both guitars

e|-------------------------------------------------------------------------------------------------------|
B|-------------------------------------------------------------------------------------------------------|
G|---5------7-------9-------11---12--11--9~--7--5-4-2---------------------------------------------7---7h9|
D|----------------------------------------------------5-4-5-7\-----------------------5-6-7--7/9-----9----|
A|-3----3/5-----5/7-----7/9--------------------------------------7-------------5-6-7---------------------|
E|----------------------------------------------------------------0---3-5--6-7---------------------------|

e|---------------------------------------------------------------|
B|---------------------------------------------------------------|
G|---------------------------------------------------------------|
D|-------------------------2-------------------------------------|
A|-5h7-7-5h7-7-5h7-7-5h7-7-2-------------------------------------|
E|-------------------------0-------------------------------------|

 
Bridge 1

e|-------2-3-2-------------2-3-2----------0-----|
B|-----3-------3---------3-------3--------0-----| 
G|---0-----------0-----0-----------0------0-----|    x4
D|----------------------------------------2-----| 
A|-3-----------------3--------------------------|
E|----------------------------------------------|


Stevens Solo

e|---------------------------------------------------------------------------------------------------------|
B|---------------------------------------------------------------------------------------------------------|
G|-13~-----13~------13-14-14/16--14--13---------------11-11/12\11------------------------------------------|
D|-------14------14----------------------14-14~----14-------------14--12-12/14-----------------------------|
A|-------------------------------------------------------------------------------12/14\12--10-10~-------10-|
E|---------------------------------------------------------------------------------------------------12----|

e|---------------------------------------------------------------------------------------------------------|
B|---------------------------------------------------------------------------------------------------------|
G|-----------------------------------14h16-16-16~---16h18-14~---14h16-16.-16h17-14.-12---------------------|
D|----------------------------14---14----------------------------------------------------------------------|
A|---10-12-12/14---11~---12-14--------------------------------------------------------------------12-14-15-|
E|-12-------------------------------------------------------------------------------------12-14-15---------|

e|--------------------------------------------------------------------------12-----------------------------|
B|--------------------------12-12p10-12-12p10-12-12p10-12-12p10-12-12~----------12.------------------------|
G|--------ph-------11-12-14-----------------------------------------------------------------(14p13)x12-----|
D|-12-14-14~-----14----------------------------------------------------------------------------------------|
A|---------------------------------------------------------------------------------------------------------|
E|---------------------------------------------------------------------------------------------------------|
        
e|-------------------------------------------------10-12-12/14.---15p14.---17-17-17-17-16------------------|
B|--------------------------------------------12-13--------------------------------------17-17-14-14-14-12-|
G|--14-16-----------------------------11-12-14-------------------------------------------------------------|
D|---------17-17\16--12-12/14~------14---------------------------------------------------------------------|
A|---------------------------------------------------------------------------------------------------------|
E|---------------------------------------------------------------------------------------------------------|

e|---------------------------------------------------------------------------------------------------------|
B|-----------------------15--------------------------------------------------------------------------------|
G|-12\9-------12-14-14b16--14b15-12------------------------------------------------------------------------|
D|-----------------------------------14-12h14-12------------------12----------12-14~-----------------------|
A|----------------------------------------------12-12-10--10-12/14--12-12---14-----------------------------|
E|------------------------------------------------------12-------------------------------------------------|

e|----------------------------------------------------------10-12~~~~~---|
B|-----------------------------------------------------10-12-------------|
G|--------------------------------------11--11-12-11-12------------------|
D|-----------------------12--12-14-12-14--14-----------------------------|
A|---------12-14-15-14-15--15--------------------------------------------|
E|-12-14-15--------------------------------------------------------------|



Bridge 2
  
e|-------2-3-2-------------2-3-2----------0-----------------2-3-2----------2-3-2---|
B|-----3-------3---------3-------3--------0----------------3-----3-------3------3--|
G|---0-----------0-----0-----------0------0---------------0-------0----0---------0-|
D|----------------------------------------2----------------------------------------|
A|-3-----------------3-----------------------------------3------------3------------|
E|---------------------------------------------------------------------------------|



Verse 3
                                           2x            2x
e|---0-00-x-0-0-0-0-x-----0-00-x-0-0-0-0----||----2-3-2---|
B|---3-33-x-3-3-3-3-x-----3-33-x-3-3-3-2----||---3-----3--|
G|---0-00-x-0-0-0-0-x-----0-00-x-0-0-0-0----||--0-------0-|     x2
D|---0-00-x-0-0-0-0-x-----2-22-x-2-2-2-2----||------------|
A|---2-22-x-2-2-2-2-x-0-0------x------------||-3----------|
E|-0------x---------x----------x------------||------------|



Final Chorus
                      5x
e|-0-0-0-0--0-0-0--0~-|---1-----0-0---0--0---------1---0-0----------0~-----------|
B|-2-2-2-2--2-2-2--2~-|-----1---0-0---1---1---------1--0-0--------4~-----4~------|
G|-2-2-2-2--2-2-2--2~-|-2-------0-0---2----2----2------0-0------4~------------4~-|
D|-2-2-2-2--1-1-1--0~-|-3-------2-2---2---------3------2-2----2~-----------------|
A|--------------------|-3-------------0---------3------------0~------------------|
E|--------------------|----------------------------------------------------------|



| /  slide up
| \  slide down
| h  hammer-on
| p  pull-off
| ~  vibrato
| +  harmonic
| x  Mute note
Добавлено: 24.03.2016
Другие материалы по этой песне:
  • Аккорды и текст

Страница создана 24.03.2016
http://primanota.ru/steven-wilson/my-book-of-regrets-chords.htm
Привет, Гость.
Предлагаем пройти революционный курс по гитаре.
Подарок от PrimaNota.Ru, забирай!