PrimaNota.ru - самый крупный в мире бесплатный архив песенных текстов, аккордов, табулатур и нот


Steven Wilson - Year Of The Plague - таба, видео

Регистрация Запомнить меня
Войти через:  Facebook Google Twitter Vk Yandex Mail.ru

Steven Wilson - Year Of The Plague - таба, видео

Печатать
Просмотров: 137
Уроки эстрадного вокала в Санкт-Петербурге
-------------------------------------------------------------------------------
                            Year of the Plague  - Steven Wilson
-------------------------------------------------------------------------------

Tabbed by: Bobbits

Tuning EADGBe

Hey guys, if you've checked the tab before I've had a rejigger with it. Much easier to play now and added
the additional acoustic that comes in.

Enjoy!

Gtr I (E A D G B E) - 'Keyboard tabbed for guitar'
Gtr II (E A D G B E) - 'Acoustic gutiar, capo on 7'
Gtr III (E A D G B E) - 'Acoustic guitar'


Guitar 1 - Heavy on the wah.

0:01-1:13

e|-3-------2-------3-------2-------3-------2-------3-------2-------3-------2-------3-------2-------0--|
B|-1-------3-------1-------3-------1-------3-------1-------3-------1-------3-------1-------3-------1--|
G|-0---------------0-------0-------0---------------0-------0-------0-------0-------0-------0-------0--|
D|----------------------------------------------------------------------------------------------------|
A|----------------------------------------------------------------------------------------------------|
E|----------------------------------------------------------------------------------------------------|





Guitar 2 switches between these, listen to the song to get an idea of when to play each.
Note the notes are in relation to the capo on 7.

1:12

e|------7-----------7------------7------------7-------------7------------7-------------7----------7------|
B|--8-------8---8-------8---8--------8---8--------8----8--------8---8--------8---8--------8---8-------8--|
G|----5-----------5------------5------------5------------5-------------5-----------5------------5--------| 
D|-------------------------------------------------------------------------------------------------------|
A|-8------8---8-------8---8--------8---8--------8----0--------0----0--------0---0--------0---0------0----|
E|-------------------------------------------------------------------------------------------------------|


e|------5-----------5-----------5------------5-------5--------5---5------5----5------5----5---------5----|
B|--6-------6---6-------6---6-------6----6-------6-----6------------6-----------6------------6-----------|
G|----3-----------3------------3-----------3-------------3------------3-----------3------------3---------| 
D|--------------------------------------------------0-------0---0-------0---0-------0---0---------0------|
A|-6------6---6-------6---6-------6---6--------6---------------------------------------------------------|
E|-------------------------------------------------------------------------------------------------------|




Guitar 3 switches between these in harmony with guitar 2. Comes in at 2:09.

e|------2-----------2------------2------------2-------------2------------2-------------2-----------2-----|
B|--3-------3---3-------3---3--------3---3--------3----3--------3---3--------3---3--------3---3-------3--|
G|----0-----------0------------0------------0------------0-------------0-------------0-----------0-------| 
D|-------------------------------------------------------------------------------------------------------|
A|-3------3---3-------3---3--------3---3--------3--------------------------------------------------------|
E|---------------------------------------------------0--------0---0--------0---0--------0---0--------0---|
 

e|------0-----------0-----------0------------0-------0-------0----0--------0---0--------0---0-------0----|
B|--1-------1---1-------1---1-------1----1-------1-----1------------1-------------1-----------1----------|
G|-------------------------------------------------------------------------------------------------------| 
D|----3-----------3------------3-----------3-------------3------------3-------------3------------3-------|
A|-1------1---1-------1---1-------1---1--------1----0------0----0--------0---0--------0----0-------0-----|
E|-------------------------------------------------------------------------------------------------------|




| /  slide up
| \  slide down
| h  hammer-on
| p  pull-off
| ~  vibrato
| +  harmonic
| x  Mute note
Добавлено: 24.03.2016
Другие материалы по этой песне:
  • Аккорды и текст

Страница создана 24.03.2016
http://primanota.ru/steven-wilson/year-of-plague-chords.htm
Привет, Гость.
Предлагаем пройти революционный курс по гитаре.
Подарок от PrimaNota.Ru, забирай!