PrimaNota.ru - самый крупный в мире бесплатный архив песенных текстов, аккордов, табулатур и нот


Static X - My Damnation - текст песни, таба, видео

Регистрация Запомнить меня
Войти через:  Facebook Google Twitter Vk Yandex Mail.ru

Static X - My Damnation - текст песни, таба, видео

Печатать
Просмотров: 72
-----------------------------------------------------------------------------
			     My Damnation - Static-X
-----------------------------------------------------------------------------
Tabbed by: unimatrix34
Email: unimatrix34@gmx.de

Tuning: Drop A# (low to high: A#,F,A#,D#,G,C)

Main Riff
e|-----------------------------------------------------------------------|
B|-----------------------------------------------------------------------|
G|---5-----5----5-----5---5------5-----5----5-------5--------------------|
D|---5-----5----5-----5---5------5-----5----5-------5--------------------|x2
A|-0-3-0-0-3-00-3-0-0-3-0-3----0-3-0-0-3-00-3-0-0-0-3--------------------|
E|-0---0-0---00---0-0---0------0---0-0---00---0-0-0----------------------|

no guitars in the verse

Chorus
Guitar 1 
e|--------------------------------------------------------------------------|
B|--------------------------------------------------------------------------|
G|--7-7-7-7-7-7-7-7-9-9-9-9-9-9-9-9-5-5-5-5-5-5-5-5-12-12-12-12-12-12-12-12-|
D|--7-7-7-7-7-7-7-7-9-9-9-9-9-9-9-9-5-5-5-5-5-5-5-5-12-12-12-12-12-12-12-12-|
A|--5-5-5-5-5-5-5-5-7-7-7-7-7-7-7-7-3-3-3-3-3-3-3-3-10-10-10-10-10-10-10-10-|
E|--------------------------------------------------------------------------|
strum each note in this line twice 
                                                                       
Guitar 2
e|-------------------------------------------------------|
B|-8-6---8-6-6-8-6---------------------------------------|
G|-7-5---7-5-5-7-5---------------------------------------|
D|-x-x---x-x-x-x-x---------------------------------------| x4
A|-5-3---5-3-3-5-3---------------------------------------|
E|-------------------------------------------------------|

Main Riff x1
e|-----------------------------------------------------------------------|
B|-----------------------------------------------------------------------|
G|---5-----5----5-----5---5------5-----5----5-------5--------------------|
D|---5-----5----5-----5---5------5-----5----5-------5--------------------|
A|-0-3-0-0-3-00-3-0-0-3-0-3----0-3-0-0-3-00-3-0-0-0-3--------------------|
E|-0---0-0---00---0-0---0------0---0-0---00---0-0-0----------------------|

then another verse without any guitars playing

whole Chorus x2
Guitar 1 
e|--------------------------------------------------------------------------|
B|--------------------------------------------------------------------------|
G|--7-7-7-7-7-7-7-7-9-9-9-9-9-9-9-9-5-5-5-5-5-5-5-5-12-12-12-12-12-12-12-12-|
D|--7-7-7-7-7-7-7-7-9-9-9-9-9-9-9-9-5-5-5-5-5-5-5-5-12-12-12-12-12-12-12-12-|
A|--5-5-5-5-5-5-5-5-7-7-7-7-7-7-7-7-3-3-3-3-3-3-3-3-10-10-10-10-10-10-10-10-|
E|--------------------------------------------------------------------------|
strum each note in this line twice      
                                                 
Guitar 2
e|-------------------------------------------------------|
B|-8-6---8-6-6-8-6---------------------------------------|
G|-7-5---7-5-5-7-5---------------------------------------|
D|-x-x---x-x-x-x-x---------------------------------------| x4
A|-5-3---5-3-3-5-3---------------------------------------|
E|-------------------------------------------------------|

Break - Both Guitars
e|-----------------------------------------------------------------------|
B|-----------------------------------------------------------------------|
G|-----------------------------------------------------------------------|
D|--3-3-3-3-3-3-3-3-2-2-2-2-2-2-2-2-------5-----7----5~------10----10----|x2
A|--3-3-3-3-3-3-3-3-2-2-2-2-2-2-2-2---0---3-0-0-5-00-3~--0-0-8--0--8-----|
E|--3-3-3-3-3-3-3-3-2-2-2-2-2-2-2-2---0-----0-0---00-----0-0----0--------|

e|--------------------------------------------------------------------------|
B|--------------------------------------------------------------------------|
G|--------------------------------------------------------------------------|
D|-3-3-3-3-3-3-3-3-3-2-2-2-2-2-2-2-2----------------------------------------|
A|-3-3-3-3-3-3-3-3-3-2-2-2-2-2-2-2-2--0---00---0---00-0-00-0-0--0-0---------|
E|-3-3-3-3-3-3-3-3-3-2-2-2-2-2-2-2-2--0---00---0---00-0-00-0-0--0-0---------|
pm:                                   .   ..   .   .. . .. . .  . .

Guitar 1
e|----------------------------------------------------|
B|----------------------------------------------------|
G|----------------------------------------------------|
D|----------------------------------------------------|x4
A|--0---00---0---00-0-00-0-0--0-0---0-0-0-0-----------|
E|--0---00---0---00-0-00-0-0--0-0---0-0-0-0-----------|
pm: .   ..   .   .. . .. . .  . .   . . . . 

play this after the second repetition of the PM part above
Guitar 2
e|------------------|
B|-8-6---8-6-6-8-6--|
G|-7-5---7-5-5-7-5--|
D|-x-x---x-x-x-x-x--| x2
A|-5-3---5-3-3-5-3--|
E|------------------|

Main Riff
e|-----------------------------------------------------------------------|
B|-----------------------------------------------------------------------|
G|---5-----5----5-----5---5------5-----5----5-------5--------------------|
D|---5-----5----5-----5---5------5-----5----5-------5--------------------|x2
A|-0-3-0-0-3-00-3-0-0-3-0-3----0-3-0-0-3-00-3-0-0-0-3--------------------|
E|-0---0-0---00---0-0---0------0---0-0---00---0-0-0----------------------|

drum roll,then

whole Chorus x2
Guitar 1 
e|--------------------------------------------------------------------------|
B|--------------------------------------------------------------------------|
G|--7-7-7-7-7-7-7-7-9-9-9-9-9-9-9-9-5-5-5-5-5-5-5-5-12-12-12-12-12-12-12-12-|
D|--7-7-7-7-7-7-7-7-9-9-9-9-9-9-9-9-5-5-5-5-5-5-5-5-12-12-12-12-12-12-12-12-|
A|--5-5-5-5-5-5-5-5-7-7-7-7-7-7-7-7-3-3-3-3-3-3-3-3-10-10-10-10-10-10-10-10-|
E|--------------------------------------------------------------------------|
strum each note in this line twice  
                                                                       
Guitar 2
e|-------------------------------------------------------|
B|-8-6---8-6-6-8-6---------------------------------------|
G|-7-5---7-5-5-7-5---------------------------------------|
D|-x-x---x-x-x-x-x---------------------------------------| x4
A|-5-3---5-3-3-5-3---------------------------------------|
E|-------------------------------------------------------|

Chorus variation
Guitar 1 
e|--------------------------------------------------------------------------|
B|--------------------------------------------------------------------------|
G|--7-7-7-7-7-7-7-7-9-9-9-9-9-9-9-9-5-5-5-5-5-5-5-5-12-12-12-12-12-12-12-12-|
D|--7-7-7-7-7-7-7-7-9-9-9-9-9-9-9-9-5-5-5-5-5-5-5-5-12-12-12-12-12-12-12-12-|
A|--5-5-5-5-5-5-5-5-7-7-7-7-7-7-7-7-3-3-3-3-3-3-3-3-10-10-10-10-10-10-10-10-|
E|--------------------------------------------------------------------------|
strum each note in this line twice 

Guitar 2
e|-------------------------------------------------------|
B|-8-6---8-6-6-8-6---------------------------------------|
G|-7-5---7-5-5-7-5---------------------------------------|
D|-x-x---x-x-x-x-x---------------------------------------| x4
A|-5-3---5-3-3-5-3---------------------------------------|
E|-------------------------------------------------------|

Guitar 3
e|-10-12---12-10-10-12-10--|
B|-------------------------|
G|-------------------------|
D|-------------------------|x4
A|-------------------------|
E|-------------------------|

chorus variation is played one more time with a fourth guitar:
Guitar 4
e|--------------------------------------------------------------------------|
B|--------------------------------------------------------------------------|
G|--------------------------------------------------------------------------|
D|--------------------------------------------------------------------------|
A|--7-7--7-7--7-7--7-7-7-7--9-9--9-9--9-9--9-9-9-9--12-12--12-12--12-12-----|
E|--7-7--7-7--7-7--7-7-7-7--9-9--9-9--9-9--9-9-9-9--12-12--12-12--12-12-----|
pm: . .  . .  . .  . . . .  . .  . .  . .  . . . .  .  .   .  .   .  .

e|---------------------------------------------|
B|---------------------------------------------|                             
G|---------------------------------------------|   all guitars end on a
D|---------------------------------------------|   slide down
A|--12-12-12-12--0-0--0-0--0-0--0-0-0-0--------|
E|--12-12-12-12--0-0--0-0--0-0--0-0-0-0--------|
pm. .  .  .  .   . .  . .  . .  . . . . 

************************************

| /   slide up
| \   slide down
| h   hammer-on
| p   pull-off
| ~   vibrato
| +   harmonic
| x   Mute note
| b   Bend

************************************
Добавлено: 27.09.2013
Другие материалы по этой песне:
  • Аккорды и текст

Страница создана 27.09.2013
http://primanota.ru/static-x-2/my-damnation-chords.htm
Привет, Гость.
Предлагаем пройти революционный курс по гитаре.
Подарок от PrimaNota.Ru, забирай!