PrimaNota.ru - самый крупный в мире бесплатный архив песенных текстов, аккордов, табулатур и нот


Static X - Skinnyman - текст песни, таба, видео

Регистрация Запомнить меня
Войти через:  Facebook Google Twitter Vk Yandex Mail.ru

Static X - Skinnyman - текст песни, таба, видео

Печатать
Просмотров: 164
The reaon that i'm tabbing this song is because i cant find anything even near accurate. 
love this sond and Static-x. this tab is accurate. Email me with any Corrections or 
at Dougisgod1313@sbcglobal.net
Tuning - Drop C - C G C F A D

Intro

|----------------------------------------------|
|----------------------------------------------|
|----------------------------------------------|
|----------------------------------------------| x4
|-10-10-10-10-10-10-10-10-10-10-10-10-10-10-10-|
|-10-10-10-10-10-10-10-10-10-10-10-10-10-10-10-|

after the 4th time you play the chorus Riff

|----------------------------------------------|
|----------------------------------------------|
|-12-12-12-12-12-12-12--10-10-10-10-10-10-10---|
|--x--x--x--x--x--x--x---x--x--x--x--x--x--x---|
|-10-10-10-10-10-10-10---8--8--8--8--8--8--8---|
|----------------------------------------------|

|----------------------------------------------|
|----------------------------------------------|
|-12-12-12-12-12-12-12-10-10-10-12-12-12-12-12-|
|--x--x--x--x--x--x--x--x--x--x--x--x--x--x--x-|
|-10-10-10-10-10-10-10--8--8--8--8--8--8--8--8-|
|----------------------------------------------|

Verse 1
For the verse you play the intro riff until the chorus
|----------------------------------------------|
|----------------------------------------------|
|----------------------------------------------|
|----------------------------------------------|
|-10-10-10-10-10-10-10-10-10-10-10-10-10-10-10-|
|-10-10-10-10-10-10-10-10-10-10-10-10-10-10-10-|
My little Girl, My little girl, My little girl, Where are you?

|----------------------------------------------|
|----------------------------------------------|
|----------------------------------------------|
|----------------------------------------------|
|-10-10-10-10-10-10-10-10-10-10-10-10-10-10-10-|
|-10-10-10-10-10-10-10-10-10-10-10-10-10-10-10-|
My F*cked up world, my f*cked up world, my f*cked up world destroyed you

|----------------------------------------------|
|----------------------------------------------|
|----------------------------------------------|
|----------------------------------------------|
|-10-10-10-10-10-10-10-10-10-10-10-10-10-10-10-|
|-10-10-10-10-10-10-10-10-10-10-10-10-10-10-10-|
Day after day, Day after day I get it now, I cant go on without you

|----------------------------------------------|
|----------------------------------------------|
|----------------------------------------------|
|----------------------------------------------|
|-10-10-10-10-10-10-10-10-10-10-10-10-10-10-10-|
|-10-10-10-10-10-10-10-10-10-10-10-10-10-10-10-|
Twisted inside, six miles high, I rehearse how to say goodbye to you

Chorus

|----------------------------------------------|
|----------------------------------------------|
|-12-12-12-12-12-12-12--10-10-10-10-10-10-10---|
|--x--x--x--x--x--x--x---x--x--x--x--x--x--x---|
|-10-10-10-10-10-10-10---8--8--8--8--8--8--8---|
|----------------------------------------------|
Skiiiiiiiiiiiiiiiinnyyyyyyyyyyyyyyyyyyyyyyyyyyy

|----------------------------------------------|
|----------------------------------------------|
|-12-12-12-12-12-12-12-10-10-10-12-12-12-12-12-|
|--x--x--x--x--x--x--x--x--x--x--x--x--x--x--x-|
|-10-10-10-10-10-10-10--8--8--8--8--8--8--8--8-|
|----------------------------------------------|
 Maaaaaaaaaaaaaaaaaaan, Turned into a monster, i'm a mother f*cker

Verse 2

|----------------------------------------------|
|----------------------------------------------|
|----------------------------------------------|
|----------------------------------------------|
|-10-10-10-10-10-10-10-10-10-10-10-10-10-10-10-|
|-10-10-10-10-10-10-10-10-10-10-10-10-10-10-10-|

|----------------------------------------------|
|----------------------------------------------|
|----------------------------------------------|
|----------------------------------------------|
|-10-10-10-10-10-10-10-10-10-10-10-10-10-10-10-|
|-10-10-10-10-10-10-10-10-10-10-10-10-10-10-10-|
Wrap it up tight, Wrap it up tight, emotions are distorted,

|----------------------------------------------|
|----------------------------------------------|
|----------------------------------------------|
|----------------------------------------------|
|-10-10-10-10-10-10-10-10-10-10-10-10-10-10-10-|
|-10-10-10-10-10-10-10-10-10-10-10-10-10-10-10-|
It's no surprise, Nothing alive, all hope has been aborted

|----------------------------------------------|
|----------------------------------------------|
|----------------------------------------------|
|----------------------------------------------|
|-10-10-10-10-10-10-10-10-10-10-10-10-10-10-10-|
|-10-10-10-10-10-10-10-10-10-10-10-10-10-10-10-|
Day after day, Day after day I get it now, I cant go on without you

|----------------------------------------------|
|----------------------------------------------|
|----------------------------------------------|
|----------------------------------------------|
|-10-10-10-10-10-10-10-10-10-10-10-10-10-10-10-|
|-10-10-10-10-10-10-10-10-10-10-10-10-10-10-10-|
Twisted inside, six miles high, I rehearse how to say goodbye to you

Chorus

|----------------------------------------------|
|----------------------------------------------|
|-12-12-12-12-12-12-12--10-10-10-10-10-10-10---|
|--x--x--x--x--x--x--x---x--x--x--x--x--x--x---|
|-10-10-10-10-10-10-10---8--8--8--8--8--8--8---|
|----------------------------------------------|
Skiiiiiiiiiiiiiiiinnyyyyyyyyyyyyyyyyyyyyyyyyyyy

|----------------------------------------------|
|----------------------------------------------|
|-12-12-12-12-12-12-12-10-10-10-12-12-12-12-12-|
|--x--x--x--x--x--x--x--x--x--x--x--x--x--x--x-|
|-10-10-10-10-10-10-10--8--8--8--8--8--8--8--8-|
|----------------------------------------------|
 Maaaaaaaaaaaaaaaaaaan, Turned into a monster, i'm a mother f*cker

|----------------------------------------------|
|----------------------------------------------|
|-12-12-12-12-12-12-12--10-10-10-10-10-10-10---|
|--x--x--x--x--x--x--x---x--x--x--x--x--x--x---|
|-10-10-10-10-10-10-10---8--8--8--8--8--8--8---|
|----------------------------------------------|
Innnnnnnnnnnnnnnnnnnsssiiiiiiiiiiiiiiiiiiiiiiide,
|----------------------------------------------|
|----------------------------------------------|
|-12-12-12-12-12-12-12-10-10-10-12-12-12-12-12-|
|--x--x--x--x--x--x--x--x--x--x--x--x--x--x--x-|
|-10-10-10-10-10-10-10--8--8--8--8--8--8--8--8-|
|----------------------------------------------|
I'm Dead______________ All used up, God damn I miss her


Synth Part - You don't play anything, but i added the lyrics

As my skin turns yellow
I forget this hell
As the skies are bruised
And the rain comes down
As my face turns pale
Try to deal with these thoughts
At the end of it all
At the end of it all...

This is when you start to play again -

|----------------------------------------------|
|----------------------------------------------|
|----------------------------------------------|
|----------------------------------------------|
|-10-10-10-10-10-10-10-10-10-10-10-10-10-10-10-|
|-10-10-10-10-10-10-10-10-10-10-10-10-10-10-10-|
At the end of it all, At the end of it all, At the end of it all

|----------------------------------------------|
|----------------------------------------------|
|----------------------------------------------|
|----------------------------------------------|
|-10-10-10-10-10-10-10-10-10-10-10-10-10-10-10-|
|-10-10-10-10-10-10-10-10-10-10-10-10-10-10-10-|
At the end of it all, At the end of it all, At the end of it all

|----------------------------------------------|
|----------------------------------------------|
|----------------------------------------------|
|----------------------------------------------|
|-10-10-10-10-10-10-10-10-10-10-10-10-10-10-10-|
|-10-10-10-10-10-10-10-10-10-10-10-10-10-10-10-|
At the end of it all, At the end of it all, At the end of it all

|----------------------------------------------|
|----------------------------------------------|
|----------------------------------------------|
|----------------------------------------------|
|-10-10-10-10-10-10-10-10-10-10-10-10-10-10-10-|
|-10-10-10-10-10-10-10-10-10-10-10-10-10-10-10-|
At the end of it all, At the end of it all, At the end of it all

Take a 6 second pause

Chorus

|----------------------------------------------|
|----------------------------------------------|
|-12-12-12-12-12-12-12--10-10-10-10-10-10-10---|
|--x--x--x--x--x--x--x---x--x--x--x--x--x--x---|
|-10-10-10-10-10-10-10---8--8--8--8--8--8--8---|
|----------------------------------------------|
Skiiiiiiiiiiiiiiiinnyyyyyyyyyyyyyyyyyyyyyyyyyyy

|----------------------------------------------|
|----------------------------------------------|
|-12-12-12-12-12-12-12-10-10-10-12-12-12-12-12-|
|--x--x--x--x--x--x--x--x--x--x--x--x--x--x--x-|
|-10-10-10-10-10-10-10--8--8--8--8--8--8--8--8-|
|----------------------------------------------|
 Maaaaaaaaaaaaaaaaaaan, Turned into a monster, i'm a mother f*cker

|----------------------------------------------|
|----------------------------------------------|
|-12-12-12-12-12-12-12--10-10-10-10-10-10-10---|
|--x--x--x--x--x--x--x---x--x--x--x--x--x--x---|
|-10-10-10-10-10-10-10---8--8--8--8--8--8--8---|
|----------------------------------------------|
Innnnnnnnnnnnnnnnnnnsssiiiiiiiiiiiiiiiiiiiiiiide,
|----------------------------------------------|
|----------------------------------------------|
|-12-12-12-12-12-12-12-10-10-10-12-12-12-12-12-|
|--x--x--x--x--x--x--x--x--x--x--x--x--x--x--x-|
|-10-10-10-10-10-10-10--8--8--8--8--8--8--8--8-|
|----------------------------------------------|
I'm Dead______________ All used up, God damn I miss her

|----------------------------------------------|
|----------------------------------------------|
|----------------------------------------------|
|----------------------------------------------|
|-10-10-10-10-10-10-10-10-10-10-10-10-10-10-10-|
|-10-10-10-10-10-10-10-10-10-10-10-10-10-10-10-|
Skin turns yellow, I forget this hell

|----------------------------------------------|
|----------------------------------------------|
|----------------------------------------------|
|----------------------------------------------|
|-10-10-10-10-10-10-10-10-10-10-10-10-10-10-10-|
|-10-10-10-10-10-10-10-10-10-10-10-10-10-10-10-|
As the skies are bruised, and the weight comes down,

|----------------------------------------------|
|----------------------------------------------|
|----------------------------------------------|
|----------------------------------------------|
|-10-10-10-10-10-10-10-10-10-10-10-10-10-10-10-|
|-10-10-10-10-10-10-10-10-10-10-10-10-10-10-10-|
As my face turns pale, Tryin to deal with these thoughts,

|----------------------------------------------|
|----------------------------------------------|
|----------------------------------------------|
|----------------------------------------------|
|-10-10-10-10-10-10-10-10-10-10-10-10-10-10-10-|
|-10-10-10-10-10-10-10-10-10-10-10-10-10-10-10-|
At the end of it all, I still miss you.

And thats it.
Добавлено: 16.09.2013
Другие материалы по этой песне:
  • Аккорды и текст

Страница создана 16.09.2013
http://primanota.ru/static-x-2/skinnyman-chords.htm
Привет, Гость.
Предлагаем пройти революционный курс по гитаре.
Подарок от PrimaNota.Ru, забирай!