PrimaNota.ru - самый крупный в мире бесплатный архив песенных текстов, аккордов, табулатур и нот


Static X - New Pain - текст песни, таба, видео

Регистрация Запомнить меня
Войти через:  Facebook Google Twitter Vk Yandex Mail.ru

Static X - New Pain - текст песни, таба, видео

Печатать
Просмотров: 86
Song: New Pain
Band: Satic-X
Tabbed By: David (Hardcore_Rocker_David@yahoo.com)

Tuning: Both Guitars are in Drop C (CGCFAD)

Hey I just finished tabbing this song by ear, and it sounds really accurate. It's at least
98% right. The only part im not so sure about is the harmonics and the last part of the 
riff.

.-Palm Mute
<#>-Natural Harmonics
~-Vibrato

Both Guitars
Intro (A): X2
D|------------------------------|
A|------------------------------|
F|------------------------------|
C|-0-0--0-0--0-0--0-0--0-0------|
G|-0-0--0-0--0-0--0-0--0-0------|
C|-0-0--0-0--0-0--0-0--0-0------|
   . .  . .  . .  . .  . .

Both Guitars
Pre-Verse (B): X4
D|------------------------------|
A|------------------------------|
F|------------------------------|
C|-0-0-0-0-0-0-3~---------------|
G|-0-0-0-0-0-0-3~---------------|
C|-0-0-0-0-0-0-3~---------------|

Guitar One
Verse (C): X8
D|-<12>--<9>--------------------| Hold the harmonic on the ninth fret
A|------------------------------|
F|------------------------------|
C|------------------------------|
G|------------------------------|
C|------------------------------|

Guitar Two
Verse (C): X8
D|------------------------------|
A|------------------------------|
F|------------------------------|
C|-0-0-0-0-0-0--0-0-------------|
G|-0-0-0-0-0-0--0-0-------------|
C|-0-0-0-0-0-0--0-0-------------|
   . . . . . .  . .

Both Guitars
Chorus (D): X4
D|------------------------------|
A|------------------------------|
F|------------------------------|
C|-0-0-0-0-0-0-3~---------------|
G|-0-0-0-0-0-0-3~---------------|
C|-0-0-0-0-0-0-3~---------------|

Both Guitars
Break Riff (E): X2
D|----------------------------------------------|
A|----------------------------------------------|
F|----------------------------------------------|
C|-55555555-88888888-33333333-55555555----------|
G|-55555555-88888888-33333333-55555555----------|
C|-55555555-88888888-33333333-55555555----------|

Guitar One (With phaser)
Pre-Chorus (F): X4
D|------------------------------|
A|------------------------------|
F|------------------------------|
C|-0-0-0-0-0-0--0-0-------------|
G|-0-0-0-0-0-0--0-0-------------|
C|-0-0-0-0-0-0--0-0-------------|
   . . . . . .  . .

Order Of Riffs And Times:
A-0:00
B-0:04
C-0:13
D-0:30
C-0:39
D-0:56
E-1:13
A-(PLAY ONCE)1:30
D-(Played Many Times)1:32
F-2:05
E-2:30
D-(Play Until Fadeout)2:47

That's it. I think I messed up the times a little. Enjoy! =)
Добавлено: 17.11.2013
Другие материалы по этой песне:
  • Аккорды и текст

Страница создана 17.11.2013
http://primanota.ru/static-x-2/new-pain-chords.htm
Привет, Гость.
Предлагаем пройти революционный курс по гитаре.
Подарок от PrimaNota.Ru, забирай!