PrimaNota.ru - самый крупный в мире бесплатный архив песенных текстов, аккордов, табулатур и нот


Static X - So - аккорды и текст, таба, видео

Регистрация Запомнить меня
Войти через:  Facebook Google Twitter Vk Yandex Mail.ru

Static X - So - аккорды и текст, таба, видео

Печатать
Просмотров: 272
So
Static X
Tuning: Drop D

So- Static-X
Drop D


INTRO (piano, arranged for guitar)

-------------------------------------------------------|
--2--0~--2--0~--3--2~--3--2~--2--0~--2--0~--3--2~------|
----------------------------------------------------4--|
----------------------------------------------------x--|
----------------------------------------------------2--|
-------------------------------------------------------|
                       ^volume swell

INTRO 2

-----------------------------------------------------------------------|
-----------------------------------------------------------------------|
--666666666666-777777[777777]--(999999)--666666666666--444444--557777--|
--xxxxxxxxxxxx-xxxxxx[xxxxxx]--(xxxxxx)--xxxxxxxxxxxx--xxxxxx--xxxxxx--|
--444444444444-555555[555555]--(777777)--444444444444--222222--335555--|
-----------------------------------------------------------------------|

-----------------------------------------------------------------------|
-----------------------------------------------------------------------|
--666666666666-777777[777777]--(999999)--666666666666--4---------------|
--xxxxxxxxxxxx-xxxxxx[xxxxxx]--(xxxxxx)--xxxxxxxxxxxx--x---------------|
--444444444444-555555[555555]--(777777)--444444444444--2---------------|
-----------------------------------------------------------------------|
() and []-indicates optional chords, pick one or the other

just before verse
|---|
|---|
|-2-|
|---|
|---|
|---|

Sorry, I can't figure out the acoustic parts of the verses, but
about midway through the verse you can hear:
-------|
-------|
--7---|
----7-|
-------|
-------|


CHORUS 1
Going into the chorus is a pinched harmonic... but i have trouble with those,
so it works if you have a distortion BUTTON on your amp, if you hit the bottom
strings, then quickly hit the button

-----------------------------------------------------------------------|
-----------------------------------------------------------------------|
--666666666666-777777[777777]--(999999)--666666666666--444444--557777--|
--xxxxxxxxxxxx-xxxxxx[xxxxxx]--(xxxxxx)--xxxxxxxxxxxx--xxxxxx--xxxxxx--|
--444444444444-555555[555555]--(777777)--444444444444--222222--335555--|
-----------------------------------------------------------------------|

-----------------------------------------------------------------------|
-----------------------------------------------------------------------|
--666666666666-777777[777777]--(999999)--666666666666--444444444444----|
--xxxxxxxxxxxx-xxxxxx[xxxxxx]--(xxxxxx)--xxxxxxxxxxxx--xxxxxxxxxxxx----|
--444444444444-555555[555555]--(777777)--444444444444--222222222222----|
-----------------------------------------------------------------------|
() and []-indicates optional chords, pick one or the other

Solo after 1st chorus
------------|
--7~---10v~-|
--x~----xv~-|
--4~----7v~-|
------------|
------------|
That gets repeated throughout the verse, so does:
-----
-----
-7--
--7-
-----
-----

Again, I can't get the acoustic part.

CHORUS 2
-----------------------------------------------------------------------|
-----------------------------------------------------------------------|
--666666666666-777777[777777]--(999999)--666666666666--444444--557777--|
--xxxxxxxxxxxx-xxxxxx[xxxxxx]--(xxxxxx)--xxxxxxxxxxxx--xxxxxx--xxxxxx--|
--444444444444-555555[555555]--(777777)--444444444444--222222--335555--|
-----------------------------------------------------------------------|

-----------------------------------------------------------------------|
-----------------------------------------------------------------------|
--666666666666-777777[777777]--(999999)--666666666666--444444444444----|
--xxxxxxxxxxxx-xxxxxx[xxxxxx]--(xxxxxx)--xxxxxxxxxxxx--xxxxxxxxxxxx----|
--444444444444-555555[555555]--(777777)--444444444444--222222222222----|
-----------------------------------------------------------------------|
() and []-indicates optional chords, pick one or the other

BRIDGE
----------------------------------|
----------------------------------|
------9--10----12-----15-15-15-15-|
-2-2--x---x-----x------x--x--x--x-|  x6
-2-2--7---8----10-----13-13-13-13-|
-2-2------------------------------|
You want to hold the 12x10 a little bit longer than it feels like you should
Don't play the 15x13s the last time.


INTERLUDE
-----------------------------|
--2--0~--2--0~--3--2~--3--2~-|
-----------------------------|
-----------------------------|
-----------------------------|
-----------------------------|
        ^solo starts here

SOLO
---------------------------------------|
---------------------------------------|
--7~----------------------------------|
-------5~-----------5------------3--|
-----------5~-----------5---7---3--|
---------------------------------------|


cool part after the solo

-------------|
-------------|
-9-9-9-9-9-9-|
-9-9-9-9-9-9-|
-9-9-9-9-9-9-|


FINAL CHORUS

-----------------------------------------------------------------------|
-----------------------------------------------------------------------|
--666666666666-777777[777777]--(999999)--666666666666--444444--557777--|
--xxxxxxxxxxxx-xxxxxx[xxxxxx]--(xxxxxx)--xxxxxxxxxxxx--xxxxxx--xxxxxx--|
--444444444444-555555[555555]--(777777)--444444444444--222222--335555--|
-----------------------------------------------------------------------|

-----------------------------------------------------------------------|
-----------------------------------------------------------------------|
--666666666666-777777[777777]--(999999)--666666666666--444444444444----|
--xxxxxxxxxxxx-xxxxxx[xxxxxx]--(xxxxxx)--xxxxxxxxxxxx--xxxxxxxxxxxx----|
--444444444444-555555[555555]--(777777)--444444444444--222222222222----|
-----------------------------------------------------------------------|
ALL OF THIS x2


OUTRO

----------------------------------|
----------------------------------|
------9--10----12-----15-15-15-15-|
-2-2--x---x-----x------x--x--x--x-|  x4
-2-2--7---8----10-----13-13-13-13-|
-2-2------------------------------|

-----------------------------|
--2--0~--2--0~--3--2~--3--2~-|
-----------------------------|
-----------------------------| x2
-----------------------------|
-----------------------------|

Let that fade out and the song's over!

| / slide up
|  slide down
| h hammer-on
| p pull-off
| ~ vibrato
| + harmonic
| x Mute note
====================================================
Добавлено: 23.08.2014
Другие материалы по этой песне:
  • Аккорды и текст

Страница создана 19.08.2013
http://primanota.ru/static-x-2/so-chords.htm
Привет, Гость.
Предлагаем пройти революционный курс по гитаре.
Подарок от PrimaNota.Ru, забирай!