PrimaNota.ru - самый крупный в мире бесплатный архив песенных текстов, аккордов, табулатур и нот


Static X - No Submission - текст песни, таба, видео

Регистрация Запомнить меня
Войти через:  Facebook Google Twitter Vk Yandex Mail.ru

Static X - No Submission - текст песни, таба, видео

Печатать
Просмотров: 82
NO SUBMISSION

by Static X

from the album Cannibal

I'm pretty sure this is correct... well, except for the solo lol

. palm mute
*pinch harmonic
b bend
^ upward bend
v downward bend

||INTRO||

------------------------------------------------------------------|  x2
------------------------------------------------------------------|
------------------------------------------------------------------|
------------------------------------------------------------------|
--------------------------------3-------------------------1-3-1---|
-1111-3333-2222-1-3333-2222-1-1-3-3333-2222-1-3333-2222-1-1-3-1---|

----------------------|
----------------------|
----------------------|
----------------------|
----------------------|
000-000-000-000-------|
. . .    . . .   . . .    . . .

------------------------------------------------------------------|  x2
------------------------------------------------------------------|
------------------------------------------------------------------|
------------------------------------------------------------------|
--------------------------------3-------------------------1-3-1---|
-1111-3333-2222-1-3333-2222-1-1-3-3333-2222-1-3333-2222-1-1-3-1---|



-----------------------------------|
-----------------------------------|
-----------------------------------|
-----------------------------------|
-----------------------------1-3---|
1111-3333-2222-1-3333-2222-1-1-3---|

||VERSE 1||

"Shut out, cut out, bloodless, hopeless, hating as I fade"
---------------------------------------------------------------|
---------------------------------------------------------------|
---------------------------------------------------------------|
---------------------------------------------------------------|
00-0-0-0-0-0-0-00-0-0-0-0-0-0-0-00-0-0-0-0-0-0-00-0-0-0-0------|
00-0-0-0-0-0-0-00-0-0-0-0-0-0-0-00-0-0-0-0-0-0-00-0-0-0-0------|

"Pulsate, pushing, head exploding, razor sharp the tongue is"
---------------------------------------------------------------|
---------------------------------------------------------------|
---------------------------------------------------------------|
---------------------------------------------------------------|
00-0-0-0-0-0-0-00-0-0-0-0-0-0-0-00-0-0-0-0-0-0-00-0-0-0-0------|
00-0-0-0-0-0-0-00-0-0-0-0-0-0-0-00-0-0-0-0-0-0-00-0-0-0-0------|

"Put down, run out, I could care less, throw down as I hate"
---------------------------------------------------------------|
---------------------------------------------------------------|
---------------------------------------------------------------|
---------------------------------------------------------------|
00-0-0-0-0-0-0-00-0-0-0-0-0-0-0-00-0-0-0-0-0-0-00-0-0-0-0------|
00-0-0-0-0-0-0-00-0-0-0-0-0-0-0-00-0-0-0-0-0-0-00-0-0-0-0------|

"Feeding, needing, severed bleeding"
---------------------------------------------------------------|
---------------------------------------------------------------|
---------------------------------------------------------------|
---------------------------------------------------------------|
00-0-0-0-0-0-0-00-0-0-0-0-0-0-0-00-0-0-0-0-0-0-00-0-0-0-0------|
00-0-0-0-0-0-0-00-0-0-0-0-0-0-0-00-0-0-0-0-0-0-00-0-0-0-0------|

"Pull it our exposing"
-----------|
-----------|
-----------|
-----------|
00-0-0-0---|
00-0-0-0---|

"Take a beating, needle spinning, fall into a daze"
---------------------------------------------------------------|
---------------------------------------------------------------|
---------------------------------------------------------------|
---------------------------------------------------------------|
00-0-0-0-0-0-0-00-0-0-0-0-0-0-0-00-0-0-0-0-0-0-00-0-0-0-0------|
00-0-0-0-0-0-0-00-0-0-0-0-0-0-0-00-0-0-0-0-0-0-00-0-0-0-0------|

"Defecation, detonation, tear the tongue apart and"
---------------------------------------------------------------|
---------------------------------------------------------------|
---------------------------------------------------------------|
---------------------------------------------------------------|
00-0-0-0-0-0-0-00-0-0-0-0-0-0-0-00-0-0-0-0-0-0-00-0-0-0-0------|
00-0-0-0-0-0-0-00-0-0-0-0-0-0-0-00-0-0-0-0-0-0-00-0-0-0-0------|

"Terminate it, suffocate it, spitting in your face"
---------------------------------------------------------------|
---------------------------------------------------------------|
---------------------------------------------------------------|
---------------------------------------------------------------|
00-0-0-0-0-0-0-00-0-0-0-0-0-0-0-00-0-0-0-0-0-0-00-0-0-0-0------|
00-0-0-0-0-0-0-00-0-0-0-0-0-0-0-00-0-0-0-0-0-0-00-0-0-0-0------|

"Accelerate, exterminate it, take it all in hand"
---------------------------------------------------------------|
---------------------------------------------------------------|
---------------------------------------------------------------|
---------------------------------------------------------------|
00-0-0-0-0-0-0-00-0-0-0-0-0-0-0-00-0-0-0-0-0-0-00-0-0-0-0------|
00-0-0-0-0-0-0-00-0-0-0-0-0-0-0-00-0-0-0-0-0-0-00-0-0-0-0------|


||CHORUS||

"There's no"

------------------------------------------------------------------|
------------------------------------------------------------------|
------------------------------------------------------------------|
------------------------------------------------------------------|
---------------------------1-3------------------------------------|
1111-3333-2222-1-3333-2222-1-3-1111-3333-2222-1-3333-2222---------|

"Submission"
------------------------------------------------------------------|
------------------------------------------------------------------|
------------------------------------------------------------------|
------------------------------------------------------------------|
---------------------------1-3------------------------------------|
1111-3333-2222-1-3333-2222-1-3-1111-3333-2222-1-3333-2222---------|

"No"
------------------------------------------------------------------|
------------------------------------------------------------------|
------------------------------------------------------------------|
------------------------------------------------------------------|
---------------------------1-3------------------------------------|
1111-3333-2222-1-3333-2222-1-3-1111-3333-2222-1-3333-2222---------|

"Submission"
------------------------------------------------------------------|
------------------------------------------------------------------|
------------------------------------------------------------------|
------------------------------------------------------------------|
---------------------------1-3------------------------------------|
1111-3333-2222-1-3333-2222-1-3-1111-3333-2222-1-3333-2222---------|

Repeat Verse

Repeat chorus

||SOLO|| 

-16-15-14--16-15-14--18-17-16--18-17-16--16-15-14--16-15-14--18-17-16------|
---------15--------15--------15--------15--------15--------15--------15----|
---------------------------------------------------------------------------|
---------------------------------------------------------------------------|
---------------------------------------------------------------------------|
---------------------------------------------------------------------------|

---------------------------------------------------------------------------|
13*--------12*--------11*-------b10^----------------------------------------|
---13-12-11--12-11-10---11-10-9--------------------------------------------|
---------------------------------------------------------------------------|
---------------------------------------------------------------------------|
---------------------------------------------------------------------------|

3333333-10-10-10-10-10-10/99999/88888/77777/66666/5555/44444/33333----------|
3333333-10-10-10-10-10-10/99999/88888/77777/66666/5555/44444/33333----------|
--------------------------------------------------------------------------|
--------------------------------------------------------------------------|
--------------------------------------------------------------------------|
--------------------------------------------------------------------------|
x2

-----------------------------------------------------------|
-12p11p10-11p10p9-10p9p8-7-------8p7-8p7--------8p7-8p7----|
--------------------------8p7-8p7--------8p7-8p7-----------|      x2
-----------------------------------------------------------|
-----------------------------------------------------------|
-----------------------------------------------------------|    

10---12p11p10-10/17*-----11---------------------|
---------------------------12-16*^-13-14-13-6v--|
------------------------------------------------|
------------------------------------------------|
------------------------------------------------|
------------------------------------------------|


||RHYTHM THROUGHOUT SOLO||
--------------------------------|
--------------------------------|
--------------------------------| Over and over until solo is done
--------------------------------|
----------------------------2---|
000-000-000-000-000-000-000-2---|
.  . .   . . .   . . .    . . .   . . .  . . .     . . .

repeat chorus

If you want to bitch at me or thank me, just e-mail at r0ssw4rri0r@hotmail.com
Добавлено: 14.06.2013
Другие материалы по этой песне:
  • Аккорды и текст

Страница создана 14.06.2013
http://primanota.ru/static-x-2/no-submission-chords.htm
Привет, Гость.
Предлагаем пройти революционный курс по гитаре.
Подарок от PrimaNota.Ru, забирай!