PrimaNota.ru - самый крупный в мире бесплатный архив песенных текстов, аккордов, табулатур и нот


Soft Cell - The Art Of Falling Apart - текст песни, бас-таба, видео

Регистрация Запомнить меня
Войти через:  Facebook Google Twitter Vk Yandex Mail.ru

Soft Cell - The Art Of Falling Apart - текст песни, бас-таба, видео

Печатать
Просмотров: 124
Авторы музыки: Dave Ball
Авторы текста: Marc Almond
Tabbed by: bassm99
E-mail: alanmatthews1966@yahoo.co.uk

Tuning: E, A, D, G

"The Art Of Falling Apart" from the album "The Art Of Falling Apart" (1983)
Written by Marc Almond & Dave Ball

Intro:

G|--------------------------------------------------------------------------|
D|--------------------------------------------------------------------------|
A|-----1-1-------5-4-3-2------5-4-3-2-4-4-----------------------------------|
E|--3------(x4)----------3-3--------------(x2)------------------------------|

Verse:

G|--------------------------------------------------------------------------|
D|--------------------------------------------------------------------------|
A|--5-4-3-2------5-4-3-2-4-4------------------------------------------------|
E|----------3-3--------------(x2)-------------------------------------------|

Chorus: 

G|--------------------------------------------------------------------------|
D|--------------------------------------------------------------------------|
A|--33333333----------------------------------------------------------------|
E|------------33333333--11111111--33333333-(x2)-----------------------------|

Verse:

G|--------------------------------------------------------------------------|
D|--------------------------------------------------------------------------|
A|--5-4-3-2--------5-4-3-2-4-4-4--------------------------------------------|
E|----------3-3-3----------------(x4)---------------------------------------|

Bridge:

G|--------------------------------------------------------------------------|
D|--------------------------------------------------------------------------|
A|--1-----------------------------------------------------------------------|
E|----2-3-3-(x8)------------------------------------------------------------|

Repeat Chorus:

Verse:

G|--------------------------------------------------------------------------|
D|--------------------------------------------------------------------------|
A|--5-4-3-2--------5-4-3-2-4-4-4--------------------------------------------|
E|----------3-3-3----------------(x8)---------------------------------------|

Repeat Chorus:

Repeat Bridge: 16 times

Repeat Chorus: 6 times to fade



Добавлено: 25.08.2013
Другие материалы по этой песне:
  • Аккорды и текст

Страница создана 19.06.2012
http://primanota.ru/soft-cell/the-art-of-falling-apart-chords.htm
Привет, Гость.
Предлагаем пройти революционный курс по гитаре.
Подарок от PrimaNota.Ru, забирай!