PrimaNota.ru - самый крупный в мире бесплатный архив песенных текстов, аккордов, табулатур и нот


Soft Cell - Torch - текст песни, бас-таба, видео

Регистрация Запомнить меня
Войти через:  Facebook Google Twitter Vk Yandex Mail.ru

Soft Cell - Torch - текст песни, бас-таба, видео

Печатать
Просмотров: 236
Уроки эстрадного вокала в Санкт-Петербурге
Авторы: Dave Ball, Marc Almond

Tabbed by: bassm99
E-mail: alanmatthews1966@yahoo.co.uk

Tuning: E, A, D, G

"Torch" from the Single "Torch" (1982)
Written by Marc Almond & Dave Ball

Intro: (4 Times)

G|--------------------------------------------------------------------------|
D|--------------------------------------------------------------------------|
A|--4-44--22-22-------------------------------------------------------------|
E|--------------------------------------------------------------------------|

Verse: (3 Times)

G|--------------------------------------------------------------------------|
D|--------------------------------------------------------------------------|
A|--6-666-(x4)--1-111-(x2)--------------------------------------------------|
E|--------------------------------------------------------------------------|

Chorus: 

G|--------------------------------------------------------------------------|
D|--------------------------------------------------------------------------|
A|--4-44-4-44--66-66-66-66--44-44-44-44--66-66-66-66------------------------|
E|--------------------------------------------------------------------------|

G|--------------------------------------------------------------------------|
D|--------------------------------------------------------------------------|
A|--44-44-44-44--66-66-66-66--44-4-44--6-66-6-66----------------------------|
E|--------------------------------------------------------------------------|

Repeat Intro:

Repeat Verse:

Repeat Chorus:

Repeat Intro:

Ending: 

G|--------------------------------------------------------------------------|
D|--------------------------------------------------------------------------|
A|--4-44--22-22-(x14)--44-44-44-44---44--4----------------------------------|
E|--------------------------------------------------------------------------|
Добавлено: 03.09.2013
Другие материалы по этой песне:
  • Аккорды и текст

Страница создана 27.05.2012
http://primanota.ru/soft-cell/torch-chords.htm
Привет, Гость.
Предлагаем пройти революционный курс по гитаре.
Подарок от PrimaNota.Ru, забирай!