PrimaNota.ru - самый крупный в мире бесплатный архив песенных текстов, аккордов, табулатур и нот


Sodom - Deathlike Silence - текст песни, таба, видео

Регистрация Запомнить меня
Войти через:  Facebook Google Twitter Vk Yandex Mail.ru

Sodom - Deathlike Silence - текст песни, таба, видео

Печатать
Просмотров: 243
Уроки эстрадного вокала в Санкт-Петербурге
SODOM - DEATHLIKE SILENCE
(Obsessed By Cruelty, 1986)

Key
= after note = vibrato
^ after note = heavy vibrato
 = slide down
/ = slide up
+ = tap
h = hammer
p = pull
n = natural harmonic
s = pinching harmonic (squeal)
* = tremolo pick
t = trill
b = bend
|-3-| = triplet

n number above the tab = play the first part then the first finishing part
                         play the first part a second time and then play the second 
finishing part
                         etc.

Riff 1

E -------------------------------------------------------------------------------------|
B -------------------------------------------------------------------------------------|
G ----------------------------------5-4-5----------------------------------10--10--10--|
D -------8----------8----------8----5-4-5-------8----------8----------8----10--10--10--|
A -55-55---55-55-55---55-55-55---55-3-2-3-55-55---55-55-55---55-55-55---55-8 --8 --8 --|
E -------------------------------------------------------------------------------------|
                                    |-3-|

Riff 1A

E ---------------------------------------------|
B ---------------------------------------------|
G ---------------------------------------------|
D ---12---14-----7----5------------------------|
A ---10---12-----5----3------------------------|
E ---------------------------------------------|

Riff 2

E ---------------------------------------------|
B ---------------------------------------------|
G -------2----------3----------2----------3--2-|
D -------2----------3----------2----------3--2-|
A ---------------------------------------------|
E -0-0-0----0-0-0-0----0-0-0-0----0-0-0-0------|

Riff 3A

E ----------------------------------------------------------------------------|
B ----------------------------------------------------------------------------|
G --------------9----9----7----7----7----7----9----9----9----9----12----10----|
D --------------9----9----7----7----7----7----9----9----9----9----12----10----|
A -5h7----------7----7----5----5----5----5----7----7----7----7----10----8 ----|
E -----00-00-00---00---00---00---00---00---00---00---00---00---00-------------|

E ------------------------------------------------------------------------|
B ------------------------------------------------------------------------|
G -7----7----7----7----5----5----5----5----7----7----7----7----10----9----|
D -7----7----7----7----5----5----5----5----7----7----7----7----10----9----|
A -5-00-5-00-5-00-5-00-3-00-3-00-3-00-3-00-5-00-5-00-5-00-5-00-8 ----7----|
E ------------------------------------------------------------------------|

E -----------------------------------------------------------------------|
B -----------------------------------------------------------------------|
G -5----5----5----5----4----4----4----4----5----5----5----5----7----9----|
D -5----5----5----5----4----4----4----4----5----5----5----5----7----9----|
A -3-00-3-00-3-00-3-00-2-00-2-00-2-00-2-00-3-00-3-00-3-00-3-00-5----7----|
E -----------------------------------------------------------------------|

E -------------------------------------------------------------------------|
B -------------------------------------------------------------------------|
G -9----9----9----9----7----7----7----7----9----9----9----9----12----10----|
D -9----9----9----9----7----7----7----7----9----9----9----9----12----10----|
A -7-00-7-00-7-00-7-00-5-00-5-00-5-00-5-00-7-00-7-00-7-00-7-00-10----8 ----|
E -------------------------------------------------------------------------|

Riff 3

E -------------------------------------------------------------------------|
B -------------------------------------------------------------------------|
G -9----9----9----9----7----7----7----7----9----9----9----9----12----10----|
D -9----9----9----9----7----7----7----7----9----9----9----9----12----10----|
A -7-00-7-00-7-00-7-00-5-00-5-00-5-00-5-00-7-00-7-00-7-00-7-00-10----8 ----|
E -------------------------------------------------------------------------|

E ------------------------------------------------------------------------|
B ------------------------------------------------------------------------|
G -7----7----7----7----5----5----5----5----7----7----7----7----10----9----|
D -7----7----7----7----5----5----5----5----7----7----7----7----10----9----|
A -5-00-5-00-5-00-5-00-3-00-3-00-3-00-3-00-5-00-5-00-5-00-5-00-8 ----7----|
E ------------------------------------------------------------------------|

E -----------------------------------------------------------------------|
B -----------------------------------------------------------------------|
G -5----5----5----5----4----4----4----4----5----5----5----5----7----9----|
D -5----5----5----5----4----4----4----4----5----5----5----5----7----9----|
A -3-00-3-00-3-00-3-00-2-00-2-00-2-00-2-00-3-00-3-00-3-00-3-00-5----7----|
E -----------------------------------------------------------------------|

E -------------------------------------------------------------------------|
B -------------------------------------------------------------------------|
G -9----9----9----9----7----7----7----7----9----9----9----9----12----10----|
D -9----9----9----9----7----7----7----7----9----9----9----9----12----10----|
A -7-00-7-00-7-00-7-00-5-00-5-00-5-00-5-00-7-00-7-00-7-00-7-00-10----8 ----|
E -------------------------------------------------------------------------|

Riff 3B

E -------------------------------------------------------------------------|
B -------------------------------------------------------------------------|
G -9----9----9----9----7----7----7----7----9----9----9----9----12----10----|
D -9----9----9----9----7----7----7----7----9----9----9----9----12----10----|
A -7-00-7-00-7-00-7-00-5-00-5-00-5-00-5-00-7-00-7-00-7-00-7-00-10----8 ----|
E -------------------------------------------------------------------------|

E ------------------------------------------------------------------------|
B ------------------------------------------------------------------------|
G -7----7----7----7----5----5----5----5----7----7----7----7----10----9----|
D -7----7----7----7----5----5----5----5----7----7----7----7----10----9----|
A -5-00-5-00-5-00-5-00-3-00-3-00-3-00-3-00-5-00-5-00-5-00-5-00-8 ----7----|
E ------------------------------------------------------------------------|

E -----------------------------------------------------------------------|
B -----------------------------------------------------------------------|
G -5----5----5----5----4----4----4----4----5----5----5----5----7----9----|
D -5----5----5----5----4----4----4----4----5----5----5----5----7----9----|
A -3-00-3-00-3-00-3-00-2-00-2-00-2-00-2-00-3-00-3-00-3-00-3-00-5----7----|
E -----------------------------------------------------------------------|

Riff 4

E ------------------------------------------------------------------------------------------|
B ------------------------------------------------------------------------------------------|
G ------------------------------------------------------------------------------------------|
D ---------------------------------------------------------------------7---------9----------|
A ---------------------------------------------------------------------7---------9----------|
E -0-33-33-33-33-33-33-33-0-22-22-22-22-22-22-22-0-33-33-33-33-33-33-0-5-55-55-0-7-77-77-77-|

E -------------------------------------------------------------------------------------|
B -------------------------------------------------------------------------------------|
G -------------------------------------------------------------------------------------|
D --------------------------------------------------------------------------------3-2--|
A ------------------------------------------------------------------------3-2---0------|
E -0-33-33-33-33-33-33-33-0-22-22-22-22-22-22-22-0-33-33-33-33-33-33-33-0-----3--------|

Outro

E ---- ---|
B ---- ---|
G -9*- -9-|
D -9*- -9-|
A -7*- -7-|
E ---- ---|




Solo over Riff 3 x 1

Solo over Riff 3 x 1
Добавлено: 10.11.2013
Другие материалы по этой песне:

Страница создана 04.06.2012
http://primanota.ru/sodom/deathlike-silence-chords.htm
Привет, Гость.
Предлагаем пройти революционный курс по гитаре.
Подарок от PrimaNota.Ru, забирай!