PrimaNota.ru - самый крупный в мире бесплатный архив песенных текстов, аккордов, табулатур и нот


Sodom - Burst Command Til War - текст песни, таба, бас-таба, видео

Регистрация Запомнить меня
Войти через:  Facebook Google Twitter Vk Yandex Mail.ru

Sodom - Burst Command Til War - текст песни, таба, бас-таба, видео

Печатать
Просмотров: 226
Band: Sodom
Song: Burst Command Til War
Tabber: Satan Man
His Email: morbid_damnation666@hotmail.com

Tunning Standard 

 Intro / Main Riff

E--------------------------------|
B--------------------------------|
G--------------------------------|
D-44444/5-444----2-44444/5-444---|
A-22222/3-222-5--0-22222/3-222-5-|
E-------------3----------------3-|

  Guitar 1
E---------------------------------|
B---------------------------------|
G---------------------------------|
D-44444/5-444----2-44444/5-444----|
A-22222/3-222-5--0-22222/3-222-5--|
E-------------3----------------3--|
 Guitar 2
E--------------------------------|
B--------------------------------|
G--------------------------------|
D-------5---------------5--------|
A-------3-----5/7-------3-----5--|
E-------------3/5-------------3--|

 Rpt Main Riff 2 X

 Verse

E-------------------------------------------------------------------------|
B-------------------------------------------------------------------------|
G-------------------------------------------------------------------------|
D-44444444444444-222222222222222-444444444444444--------------------------|
A-22222222222222-000000000000000-222222222222222-5555555555555555---(5)---|
E------------------------------------------------3333333333333333---(3)---|

 Rpt Main Riff 2 X
 Rpt Verse
 Rpt Main Riff 4 X
 Rpt Verse
 Rpt Main Riff 5 X
 
E-------------------------------------|
B-------------------------------------|
G-------------------------------------|
D-44444/5-444----2-44444/5-444--------|
A-22222/3-222-5--0-22222/3-222-5--(5)-|
E-------------3----------------3--(3)-|

 Rpt Main Riff 5 X

E----------------------------------------|
B----------------------------------------|
G----------------------------------------|
D-44444/5-444----2-44444/5-444-----------|
A-22222/3-222-5--0-22222/3-222-5-----(5)-|
E-------------3----------------3-----(3)-|

 Ending.  

E--------------------------------------------------------------------|
B--------------------------------------------------------------------|
G--------------------------------------------------------------------|
D-44444444444444444444444444444444444444444444444-4--4--4--4---4---4-|
A-22222222222222222222222222222222222222222222222-2--2--2--2---2---2-|
E--------------------------------------------------------------------|

E--------------------------------------------------------------------|
B--------------------------------------------------------------------|
G--------------------------------------------------------------------|
D-22222222222222222222222222222222222222222222222-2--2--2--2---2---2-|
A-00000000000000000000000000000000000000000000000-0--0--0--0---0---0-|
E--------------------------------------------------------------------|

E--------------------------------------------------------------------|
B--------------------------------------------------------------------|
G--------------------------------------------------------------------|
D-66666666666666666666666666666666666666666666666-4--4--4--4---4---4-|
A-44444444444444444444444444444444444444444444444-6--6--6--6---6---6-|
E--------------------------------------------------------------------|

E-------------------------------------------------------------------|
B-------------------------------------------------------------------|
G-------------------------------------------------------------------|
D-6------------------------(6)--------------------------------------|
A-4------------------------(4)--------------------------------------|
E-------------------------------------------------------------------|
Добавлено: 18.06.2012
Другие материалы по этой песне:

Страница создана 19.05.2012
http://primanota.ru/sodom/burst-command-til-war-chords.htm
Привет, Гость.
Предлагаем пройти революционный курс по гитаре.
Подарок от PrimaNota.Ru, забирай!