PrimaNota.ru - самый крупный в мире бесплатный архив песенных текстов, аккордов, табулатур и нот


Sodom - Genocide - текст песни, таба, видео

Регистрация Запомнить меня
Войти через:  Facebook Google Twitter Vk Yandex Mail.ru

Sodom - Genocide - текст песни, таба, видео

Печатать
Просмотров: 363
Авторы музыки: Sodom
Авторы текста: Tom Angelripper
-------------------------------------------------------------------------------
                             GEnocide - Sodom
-------------------------------------------------------------------------------
Tabbed by: David  (UG username - kingyots)      
E-mail: Davidc9415@hotmail.com  

Tuning: 1 step down : D-A-F-C-G-D


this is my first tab so there will be mistakes here and there, 
but i hope this gives you an idea of how the song goes. 


*intro 
     Riff 1
E|---------------------------------:|
B|---------------------------------:|
G|---------------------------------:|
D|-2-------------------------------:|
A|-2-------------------------------:|
E|-0-0-0-0 000-0-000-0-0-0-000-000-:|  x8
     * * * *** * *** * * * *** ***

*fill 1
    Riff 2
E|:---------------------------------|--------------------------------|
A|:---------------------------------|--------------------------------|
D|:---------------------------------|--------------------------------|
G|:-2--3-3-3-3-3-3-2----------------|-2--3-3-3-3-3-3-2---------------|
B|:-2--3-3-3-3-3-3-2-----2---2h3p2p1|-2--3-3-3-3-3-3-2----2---2-3-2~-|
E|:-0--1-1-1-1-1-1-0---0---0--------|-0--1-1-1-1-1-1-0-----0---0-----|


E|---------------------------------|------------------------------:|
A|---------------------------------|------------------------------:|
D|---------------------------------|------------------------------:|
G|-2--3-3-3-3-3-3-2----------------|-2--3-3-3-3-3-3-2\------------:|
B|-2--3-3-3-3-3-3-2-----2---2h3p2p1|-2--3-3-3-3-3-3-2\------------:|
E|-0--1-1-1-1-1-1-0---0---0--------|-0--1-1-1-1-1-1-0\-(whamy bar):|


*verse 
   guitar 1
E|:---------------------------------:|
B|:---------------------------------:|
G|:---------------------------------:|
D|:-2-------------------------------:|
A|:-2-------------------------------:|
E|:-0-0-0-0 000-0-000-0-0-0-000-000-:|  
      * * * *** * *** * * * *** ***

   guitar 2
E|:---------------------------------:|
A|:---------------------------------:|
D|:--------------------5------------:|
G|:-2------------------5-------3----:|
B|:-2------------------3-------3----:|
E|:-0--------------------------1----:| 



    fill 2 (something like this)
e|---------------------------------|
B|---------------------------------|
G|---------------------------------|
D|-2-2-2-2-2-2-2-2-2-2-2-2-2-2-2-2-|
A|-2-2-2-2-2-2-2-2-2-2-2-2-2-2-2-2-|
E|-0-0-0-0-0-0-0-0-0-0-0-0-0-0-0-0-|




*Pre chorus                           fill 3
        Riff 3                   Riff 3a     Add this note the second time
D|:--------------------:|        |-------------------|-----|
A|:--------------------:|        |-------------------|-----|
E|:--------------------:|        |-------------------|-----|
G|:-------4-3----------:|        |-------5-4-5-8-5-4-|-----|
B|:-3-2---2-1-2-8-5-4--:|        |-3-2---3-2-3-5-3-2-|---3-|  
e|:-1-0-------0-5-3-2--:|        |-1-0---------------|---1-|         

             
     
 
*CHORUS                       fill 4 
      Riff 4                           riff 5                             
e|:--------------------:|  |:-----------------------------------:| 
B|:--------------------:|  |:-----------------------------------:| 
G|:--------------------:|  |:-----------------------------------:| 
D|:--2-------3-----5---:|  |:-----------------------------------:| 
A|:--0---0-0-1-----5---:|  |:---7-8---8-7---5-8---4-5-4-3/4\1---:| 
E|:----------------3---:|  |:-0-5-6-0-6-5-0-3-5-0-2-3-2-1/2\1---:| 
         * *                  *     *     *     *                    

   
     Riff 5b
|---------------------------------|
|---------------------------------|
|---------------------------------|
|---7-8---8-7---5-8---4-5-4-3-4-3-|
|-0-5-6-0-6-5-0-3-5-0-2-3-2-1-2-1-|
  * * * * * * * * * * * * * * * * 

-play verse, pre chorus and chorus.

    
     Solo rythm
    
e|------------------------------------------------------------------------|
B|------------------------------------------------------------------------|
G|------------------------------------------------------------------------|
D|------------------------------------------------------------------------|
A|-7---------7---------7---------7----8----7---------7---------7-8-7-5----|
E|-5-0-0-0-0-5-0-0-0-0-5-0-0-0-0-5----6----5-0-0-0-0-5-0-0-0-0-5-6-5-3----| x2
     * * * *   * * * *   * * * *             * * * *   * * * *  
e|------------------------------------------------------------------------|
B|------------------------------------------------------------------------|
G|------------------------------------------------------------------------|
D|------------------------------------------------------------------------|
A|-2---------2---------2---------2----3----2---------2---------2-3-5-3----|
E|-0-0-0-0-0-0-0-0-0-0-0-0-0-0-0-0----1----0-0-0-0-0-0-0-0-0-0-0-1-3-1----| x4
     * * * *   * * * *   * * * *             * * * *   * * * * 
e|------------------------------------------------------------------------|
B|------------------------------------------------------------------------|
G|------------------------------------------------------------------------|
D|------------------------------------------------------------------------|
A|-2-----------------------------14-14/15\14-------------------5-----3----|
E|-0-0-0-0-0-0-0-0-0-0-0-0-0-0-0-12-12/13\12-0-0-0-0-0-0-0-0-0-3-----1----| x2
     * * * * * * * * * * * * * *             * * * * * * * * * 

- play pre chorus,  then chorus, and finish with riff 5b.


suggestions for improvement are welcomed, please feel free to e-mail me or 
comment with corrections 
 
  enjoy :)
************************************

| /   slide up
| \   slide down
| h   hammer-on
| p   pull-off
| ~   vibrato
| *   Palm mute
************************************
Добавлено: 27.11.2013
Другие материалы по этой песне:
  • Аккорды и текст

Страница создана 28.02.2012
http://primanota.ru/sodom/genocide-chords.htm
Привет, Гость.
Предлагаем пройти революционный курс по гитаре.
Подарок от PrimaNota.Ru, забирай!