PrimaNota.ru - самый крупный в мире бесплатный архив песенных текстов, аккордов, табулатур и нот


Sodom - Obssessed By Cruelty - таба, видео

Регистрация Запомнить меня
Войти через:  Facebook Google Twitter Vk Yandex Mail.ru

Sodom - Obssessed By Cruelty - таба, видео

Печатать
Просмотров: 192
Уроки эстрадного вокала в Санкт-Петербурге
Riff 1


E|--------------------------|
B|--------------------------|
G|--------------------------|
D|--------------------------|
A|------2----5----0----3----|
E|-0------------------------|


Riff 2


E|---------------------------------------------------|
B|---------------------------------------------------|
G|-----------2----5----4---------2---------4----5----|
D|-2----5----2----5----4----2----2----5----4----5----|
A|-2----5----0----3----2----2----0----5----2----3----|
E|-0----3-------------------0---------3--------------|


Riff 3


E|-------------------------------------------------------------------------------------|
B|-------------------------------------------------------------------------------------|
G|-------------------------------------------------------------------------5-5---5-5---|
D|-------------------------------------------------------------------------5-5---5-5---|
A|-------------------------------------------------------------------------3-3---3-3---|
E|-00-00-00-00-00-00-00-00-00-00-00-00-00-00-00-00-00-00-00-00-00-00-00-00-------------|


Riff 4


E|----------------------|
B|----------------------|
G|-9----5----7----10----|
D|-9----5----7----10----|
A|-7----3----5----8 ----|
E|----------------------|


Fill 1

E|----------|
B|----------|
G|-7-8------|
D|-7-8------|
A|-5-6------|
E|----------|

Riff 5A


E|---------------------------------------------------|
B|---------------------------------------------------|
G|-9----9----10----9----5-6-7----9----10----9----7-8-|
D|-9----9----10----9----5-6-7----9----10----9----7-8-|
A|-7-00-7-00-8 -00-7-00-3-4-5-00-7-00-8 -00-7-00-5-6-|
E|---------------------------------------------------|


Riff 5


E|---------------------------------------------------|
B|---------------------------------------------------|
G|-9----9----10----9----5-6-9----9----10----9----7-8-|
D|-9----9----10----9----5-6-9----9----10----9----7-8-|
A|-7-00-7-00-8 -00-7-00-3-4-7-00-7-00-8 -00-7-00-5-6-|
E|---------------------------------------------------|


Fill 2


E|----------------------------------------------------------------------------------------------|
B|----------------------------------------------------------------------------------------------|
G|-9--------------------------------------------------------------------------------------------|
D|-9--------------------------------------------------------------------------------------------|
A|-7--------------------------------------------------------------------------------------------|
E|----00-00-00-00-00-00-00-00-00-00-00-00-00-00-00-00-00-00-00-00-00-00-00-00-00-00-00-00-00-00-|


Riff 6


E|-------------------------------------------------------------------|
B|-------------------------------------------------------------------|
G|-9--------5--------------------------------------------------------|
D|-9--------5--------------------------------------------------------|
A|-7--------3--------------------------------------------------------|
E|-------------------33-33-33-33-33-33-33-33-33-33-33-33-33-33-33-33-|


Riff 7

E|------------------------------------------------|
B|------------------------------------------------|
G|-10----------10----------10----------12-11-12-9-|
D|-10----------10----------10----------12-11-12-9-|
A|-8 -77-77-77-8 -77-77-77-8 -77-77-77-10-9 -10-7-|
E|------------------------------------------------|

Riff 8


E|---------------------------------|
B|---------------------------------|
G|------------5--------7--7--7--7--|
D|-------55-7----------7--7--7--7--|
A|-00-00---------00-00-5--5--5--5--|
E|---------------------------------|


Order

Miscellaneous noise
Riff 1 x 4
Riff 2 x 2
Riff 3 x 5
Riff 4 x 4
Riff 3 x 4
Riff 4 x 4
Miscellaneous noise
Fill 1 x 1
Riff 5A x 2
Riff 5 x 3
Fill 2 x 1
Riff 6 x 4
Riff 3 x 4
Riff 4 x 4
Riff 7 x 3
Solo over Riff 7 x 4
Solo over Riff 8 x 4
Riff 6 x 4
Riff 1 x 2
Riff 2 x 2
Добавлено: 30.11.2013
Другие материалы по этой песне:
  • Аккорды и текст

Страница создана 30.11.2013
http://primanota.ru/sodom/obssessed-by-cruelty-chords.htm
Привет, Гость.
Предлагаем пройти революционный курс по гитаре.
Подарок от PrimaNota.Ru, забирай!