PrimaNota.ru - самый крупный в мире бесплатный архив песенных текстов, аккордов, табулатур и нот


Sodom - God Bless You - текст песни, бас-таба, видео

Регистрация Запомнить меня
Войти через:  Facebook Google Twitter Vk Yandex Mail.ru

Sodom - God Bless You - текст песни, бас-таба, видео

Печатать
Просмотров: 406
Уроки эстрадного вокала в Санкт-Петербурге
Tab by : 6METAL6BASSIST6

Email: Petergriffinav@gmail.com

Bass enters at 0:22

F|------------------------|
G|------------------------| x2
C|--------2-2-2---3-------|
D|3-2-0---------------5---|

F|--------------------------|    F|-----------------------------|
G|--------------------------| x3 G|-----------------------------|
C|----------2---2-3---3-----|    C|----------2---2-3---3-5------|
D|3-2-0---0-------------5---|    D|3-2-0---0-----------------3-5|

F|----------------------------------------------------------------------|
G|----------------------------------------------------------------------| x2
C|----2----2-3----3-5----5-3----3-2-------2----2-3----3-5----5-3-2------|
D|0-5---00-----00-----00-----00-----3-0-5---00-----00-----00-------5-3-2|

F|----------------------------------------------------------------|
G|----------------------------------------------------------------| x2
C|--------------------------------8-7---8-7----5-6-7-----8-7---3-2|
D|1-1-1-1-1-1-1-1-1-1-1-1-1-1-1-------0-----00-------000-----0----|

F|----------------------------------------------------------------|
G|----------------------------------------------------------------| x2
C|--------------------------------8-7---8-7----5-6-7-----8-7---3-2|
D|1-1--11-1-1-1-1-4-4--44-4-4-4-4-----0-----00-------000-----0----|

         God Bless you..
F|--------------------------------------|
G|--------------------------------------| x2
C|--------------------------------------|
D|0--0--0-0-0--0--0-0-8--7--7--5--3--3-2|

One By One
F|----------------------------------------------------------------------|
G|----------------------------------------------------------------------| x2
C|----2----2-3----3-5----5-3----3-2-------2----2-3----3-5----5-3-2------|
D|0-5---00-----00-----00-----00-----3-0-5---00-----00-----00-------5-3-2|

F|----------------------------------------------------------------|
G|----------------------------------------------------------------| x2
C|--------------------------------8-7---8-7----5-6-7-----8-7---3-2|
D|1-1-1-1-1-1-1-1-1-1-1-1-1-1-1-------0-----00-------000-----0----|

F|----------------------------------------------------------------|
G|----------------------------------------------------------------| x2
C|--------------------------------8-7---8-7----5-6-7-----8-7---3-2|
D|1-1--11-1-1-1-1-4-4--44-4-4-4-4-----0-----00-------000-----0----|

F|--------------------------------------|
G|--------------------------------------| x2
C|--------------------------------------|
D|0--0--0-0-0--0--0-0-8--7--7--5--3--3-2|
  
      It's too fast to count how many times it's played but it sounds right.
F|-------------------------------|
G|-------------------------------| x4
C|87777788778777778877877777-5-6-|
D|-------------------------------|

During guitar solo, not sure if this is 100%
F|-----------------------------------------------|
G|-----------------------------------------------|
C|-----------------------------------------------|
D|8--8----3--3----5-0-0-5-5-0-0-5-5-0-0-5-5-7-7-7|

F|-----------------------------------------------|
G|-----------------------------------------------|
C|-----------------------------------------------|
D|8--8----3--3----5-0-0-5-5-0-0-5-5-0-0-5-5-3-3-3|

   After solo
F|---------------------------------------------------------------|
G|---------------------------------------------------------------|
C|8-7-7-8-7-7-8-7-8-7-7-8-7-7-8-7-8-7-7-8-7-7-8-7-8-7-7-8-7-7-8-7|
D|---------------------------------------------------------------|

F|-------------------------------|
G|-------------------------------| x2
C|87777788778777778877877777-5-6-|
D|-------------------------------|

F|--------------------------------------|
G|--------------------------------------| x4
C|--------------------------------------|
D|0--0--0-0-0--0--0-0-8--7--7--5--3--3-2|

F|-------------------------------|
G|-------------------------------| x4
C|87777788778777778877877777-5-6-|
D|-------------------------------|

F|---------------------------------------------------------------|
G|---------------------------------------------------------------| x2
C|7-7-7-7-7-7-7-7-9-9-9-9-9-9-9-9-5-5-5-5-5-5-5-5-7-7-7-7-7-7-7-7|
D|---------------------------------------------------------------|

F|--------------------------------------------------------------------------|
G|--------------------------------------------------------------------------| x2
C|5-7----7----7----7-5-7----7----7----7-5-7----7----7----7-10-7----7----7-5-|
D|----00---00---00-------00---00---00-------00---00---00--------00---00-----|

F|---------------------------------------------------------------|
G|---------------------------------------------------------------| x2
C|7-7-7-7-7-7-7-7-9-9-9-9-9-9-9-9-5-5-5-5-5-5-5-5-7-7-7-7-7-7-7-7|
D|---------------------------------------------------------------|

F|------------------|
G|------------------| 
C|7-7--7-7-777-7-7-7|
D|------------------|
Добавлено: 03.08.2013
Вам также может быть интересно:
Другие материалы по этой песне:

Страница создана 03.08.2013
http://primanota.ru/sodom/god-bless-you-chords.htm
Привет, Гость.
Предлагаем пройти революционный курс по гитаре.
Подарок от PrimaNota.Ru, забирай!