PrimaNota.ru - самый крупный в мире бесплатный архив песенных текстов, аккордов, табулатур и нот


Sneaker Pimps - Post Modern Sleaze - текст песни, таба, видео

Регистрация Запомнить меня
Войти через:  Facebook Google Twitter Vk Yandex Mail.ru

Sneaker Pimps - Post Modern Sleaze - текст песни, таба, видео

Печатать
Просмотров: 220
Уроки эстрадного вокала в Санкт-Петербурге
-------------------------------------------------------------------------------
                             Post-Modern Sleaze - Sneaker Pimps
-------------------------------------------------------------------------------
Tabbed by:Vtrillo627
Email:it_dies_today84@yahoo.com

Tuning:Standard


This is the version from the BECOMING X album, not the (Flight From Nashville) 
version on the BECOMING REMIXED album.




Intro:

Guitar 1
e|-----------------------------------------------------------------|
B|-----------------------------------------------------------------|
G|------5------3\2------5-----3\2-----5-----3\2-----5-----3/2------| 
D|------5--5--------3---5---5-----3---5---5-----3---5---5-----3----|
A|---3----3----------3-----6-------3-----6-------3-----6-------3---|
E|-----------------------------------------------------------------|

Guitar 2
e|-----------------------------------------------------------------|
B|-----------------------------------------------------------------|
G|------5------3\2------5-----3\2-----5-----3\2------3h5--3\2------|
D|------5---------------5-------------5-----------3h5--------------|
A|-----------------------------------------------------------------|
E|-----------------------------------------------------------------|


Guitar 1
e|-----------------------------------------------------------------|
B|-----------------------------------------------------------------|
G|------5------3\2------5-----3\2-----5-----3\2-----5-----3/2------| 
D|------5--5--------3---5---5-----3---5---5-----3---5---5-----3----|
A|---3----3----------3-----6-------3-----6-------3-----6-------3---|
E|-----------------------------------------------------------------|

Guitar 2
e|-----------------------------------------------------------------|
B|-----------------------------------------------------------------|
G|------3h5---3\2-------3h5---3\2-----3h5---3\2-----3h5---3\2------|
D|---3h5-------------3h5-----------3h5-----------3h5---------------|
A|-----------------------------------------------------------------|
E|-----------------------------------------------------------------|




Pre-Verse:

e|------------|
B|------------|
G|------3h5---| x4
D|---3h5------|
A|------------|
E|------------|



Verse 1:

e|-----------------------------------------------|
B|-----------------------------------------------|
G|------3h5-------3h5---5--------3h5-------3h5---| x2
D|---3h5-------3h5------------3h5-------3h5------|
A|-----------------------------------------------|
E|-----------------------------------------------|



Chorus:

     Bb  F                    Bb   F    C
e|---6---1-----------|     ---6----1----x-----|
B|---6---1-----------|     ---6----1----5-----|
G|---7---2------3h5--| x2  ---7----2----5-----| x2
D|---8---3---3h5-----|     ---8----3----5-----|
A|---8---3-----------|     ---8----3----3-----|
E|---6---1-----------|     ---6----1----x-----|



Verse 2:

e|---------------------------------------------------|
B|-----------------------------------------3---4\3---|
G|------3h5------3h5---5----5---3\2---5------5-------| x3
D|---3h5------3h5-----------5---------5--------------|
A|------------------------3---------3----------------|
E|---------------------------------------------------|

e|---------------------------------------------------|
B|------------------------------3/4-3---------4\3----|
G|-----3h5-------3h5---5----5---3/5-3------5--5\3----|
D|---3h5------3h5-----------5--------------5---------|
A|------------------------3------------3-3-----------|
E|---------------------------------------------------|



Chorus:

     Bb  F                    Bb   F    C
e|---6---1-----------|     ---6----1----x-----|
B|---6---1-----------|     ---6----1----5-----|
G|---7---2------3h5--| x2  ---7----2----5-----| x2
D|---8---3---3h5-----|     ---8----3----5-----|
A|---8---3-----------|     ---8----3----3-----|
E|---6---1-----------|     ---6----1----x-----|



Verse 3:

e|---------------------------------------------------|
B|---------------------------------------------4\3---|
G|------3h5------3h5---5----5---3\2---5-----3--------| 
D|---3h5------3h5-----------5---------5-------5------|
A|------------------------3---------3----------------|
E|---------------------------------------------------|

e|---------------------------------------------------|
B|-----------------------------------------3---4\3---|
G|------3h5------3h5---5----5---3\2---5------5-------|
D|---3h5------3h5-----------5---------5--------------|
A|------------------------3---------3----------------|
E|---------------------------------------------------|


Chorus:

     Bb  F                    Bb   F    C
e|---6---1-----------|     ---6----1----x-----|
B|---6---1-----------|     ---6----1----5-----|
G|---7---2------3h5--| x2  ---7----2----5-----| x2
D|---8---3---3h5-----|     ---8----3----5-----|
A|---8---3-----------|     ---8----3----3-----|
E|---6---1-----------|     ---6----1----x-----|



Outro:

e|---6-5-3------------|
B|--------6-5---------|
G|------------5-3-0---| x3
D|--------------------|
A|--------------------|
E|--------------------|


| /  slide up
| \  slide down
| h  hammer-on
| p  pull-off
| ~  vibrato
| +  harmonic
| x  Mute note
===============================================================================
Добавлено: 27.06.2012
Другие материалы по этой песне:
  • Аккорды и текст

Страница создана 19.04.2012
http://primanota.ru/sneaker-pimps/post-modern-sleaze-chords.htm
Привет, Гость.
Предлагаем пройти революционный курс по гитаре.
Подарок от PrimaNota.Ru, забирай!