PrimaNota.ru - самый крупный в мире бесплатный архив песенных текстов, аккордов, табулатур и нот


Sneaker Pimps - Bloodsport - текст песни, бас-таба, видео

Регистрация Запомнить меня
Войти через:  Facebook Google Twitter Vk Yandex Mail.ru

Sneaker Pimps - Bloodsport - текст песни, бас-таба, видео

Печатать
Просмотров: 55
Bloodsport

Artist: Sneaker Pimps

Transcription: Johnny P.

120 bpm


G|-----------------|---7------7----7/6---|
D|-------------5/4-|-------9-------------|
A|--7---2/5--------|---------------------|
E|0---0------3-----|-7---7-------7-------|

Play during all music, listen for understand.


simplified version:


G|-----------------|---------------------|
D|-------------5/4-|---0---7--5-----5/4--|
A|--7---2/5--------|---------------------|
E|0---0------3-----|-7---7-------7-------|


Contact: johnnyp.bassman@gmail.com
Добавлено: 19.05.2016
Другие материалы по этой песне:
  • Аккорды и текст

Страница создана 20.07.2012
http://primanota.ru/sneaker-pimps/bloodsport-chords.htm
Привет, Гость.
Предлагаем пройти революционный курс по гитаре.
Подарок от PrimaNota.Ru, забирай!