PrimaNota.ru - самый крупный в мире бесплатный архив песенных текстов, аккордов, табулатур и нот


Sneaker Pimps - Lightning Field - текст песни, таба, видео

Регистрация Запомнить меня
Войти через:  Facebook Google Twitter Vk Yandex Mail.ru

Sneaker Pimps - Lightning Field - текст песни, таба, видео

Печатать
Просмотров: 194
 font face="courier new">
Sneaker Pimps :: Lightning Field
Album: Splinter
Tuning : normal with capo on fret 1
 **Since NO ONE seems to have sneaker pimps tabs, i am submitting tabs
   found from the only resource available for sneaker pimps tabs, the
   sneaker tabs :: http://www.multimania.com/sneakertabs/frame.htm
-droukas (rickets@antisocial.com)

INTRO/VERSE
e------------------------------------------------------------------
B-----------------4--0---------------------------------------------
G---------2----2-----------2----2--------0-----0---------0-----0---
D------2----------------0-------------2---------------4------------
A---0-------0-----0--2-------2-----3--------3-----3/5-------5------
E------------------------------------------------------------------


END OF THE VERSE
e------------------------------------------------------------------
B-----------------4--0---------------------------------------------
G---------2----2-----------2----2--------0-----0--------0----0-----
D------2----------------0-------------2--------------0-------------
A---0-------0-----0--2-------2-----3--------3-----2--------2-------
E------------------------------------------------------------------


CHORUS
e---1--3--0--2--
B---1--3--1--3--
G---2--0--2--4--
D---3--0--2--4--
A---3--x--0--2--
E---x--3--x--x--


BRIDGE (x2)
e--------------------------------------------------
B------1-0-----------------------------------------
G----------2-0----------0-----0---------0-----0----
D--------------2-----2---------------4-------------
A----0------------3--------3-----3/5-------5-------
E--------------------------------------------------

to sum up here are the chords for 'Lightning Field'
x02210
x2020x
x3200x
x5400x
x33211
3x0033
x24432

it's quite easy to play but it sounds great !!! :):)
corrections & fans of sneaker pimps are always welcome !
please e-mail me first before using this tab on your page...

Transcribed by  bertg>nimrod_fr aka luckystar8@worldonline.fr

     
Добавлено: 20.07.2013
Вам также может быть интересно:
Другие материалы по этой песне:
  • Аккорды и текст

Страница создана 08.07.2012
http://primanota.ru/sneaker-pimps/lightning-field-chords.htm
Привет, Гость.
Предлагаем пройти революционный курс по гитаре.
Подарок от PrimaNota.Ru, забирай!