PrimaNota.ru - самый крупный в мире бесплатный архив песенных текстов, аккордов, табулатур и нот


Sneaker Pimps - Spin Spin Sugar - текст песни, таба, видео

Регистрация Запомнить меня
Войти через:  Facebook Google Twitter Vk Yandex Mail.ru

Sneaker Pimps - Spin Spin Sugar - текст песни, таба, видео

Печатать
Просмотров: 160
Уроки эстрадного вокала в Санкт-Петербурге
Авторы: Ian Pickering, Liam Howe, Chris Corner

SNEAKER PIMPS - Spin Spin Sugar
 
Tuning : everything up a half step or use a capo on 1st fret
This is how I play Spin Spin Sugar
the guitar parts are really interesting...

INTRO
e------------------------3-----
B---------2-----0---3----3-----
G-----3------------------0-----
D-----4------------------4-----
A-----4------------------5-----
E-----2------------------------
 
CHORUS
e---------2--------------2--------------5-------------7---------------
B-------------2------------2--------------5---------------------------
G-----------4----------------2--------------7-----------8--9--8-------repeat as
D----------------2--------------2--------------7---------------------- needed
A-----4--------------4--------------7--------------9------------------
E-----2--------------2--------------5--------------7------------------

there is other parts I haven^Òt tab but it^Òs very simple only notes
the difficult part is the chorus !

     
Добавлено: 21.11.2013
Другие материалы по этой песне:
  • Аккорды и текст

Страница создана 09.07.2012
http://primanota.ru/sneaker-pimps/spin-spin-sugar-chords.htm
Привет, Гость.
Предлагаем пройти революционный курс по гитаре.
Подарок от PrimaNota.Ru, забирай!