PrimaNota.ru - самый крупный в мире бесплатный архив песенных текстов, аккордов, табулатур и нот


Smile Empty Soul - Jesus Is The Manager At Walmart - таба, видео

Регистрация Запомнить меня
Войти через:  Facebook Google Twitter Vk Yandex Mail.ru

Smile Empty Soul - Jesus Is The Manager At Walmart - таба, видео

Печатать
Просмотров: 192
ok folks i tabbed the intro on my last tab but i cant quite figure out how to change it 
the whole song so ill tab what i have alrighty! enjoy folks

tuning- Drop D down a half step

~intro~
-palm muted-
Eb------------------------------------------------||
Bb------------------------------------------------||
F#------------------------------------------------||
C#--7---------5----------0---------3--------------||
G#--7--(x8)--5--(x8)--0--(x8)--3--(x8-------------||
C#--7---------5----------0---------3--------------||

(verse/ same as intro)

~chorus~
Eb -------------------------------------------------------------------------------||
Bb--------------------------------------------------------------------------------||
F#---------9p7-9p7-------------9p7-9p7--------------7p5-7p5---------------5p3-5p3-||
C#--7-7---------------7-7-7-7--------------7-7--5-5----------------5-5--3-3-------|| (x2)
G#--7-7---------------7-7-7-7--------------7-7--5-5--------------- 5-5--3-3- -----||
C#--7-7---------------7-7-7-7--------------7-7--5-5----------------5-5--3-3-------||

(second time end with)

Eb--------------------------------||
Bb--------------------------------||
F#--7---------------------9-------||
C#--x--(x8) (slide to)-x----------||
G#--5------------------- -7--- ---||
C#--0-----------------------------||

(then)
Eb------------------------------------------------------||
Bb------------------------------------------------------||
F#------------------------------------------------------||
C#---5/7-x-7--5/7-x-7----3--------0---------------------||  (x2)
G#---5/7-x-7--5/7-x-7----3--(x8)-0--(x8)---- -----------||
C#---5/7-x-7--5/7-x-7----3--------0---------------------||


Eb -------------------------------------------------------------------------------||
Bb--------------------------------------------------------------------------------||
F#---------9p7-9p7-------------9p7-9p7--------------7p5-7p5---------------5p3-5p3-||
C#--7-7---------------7-7-7-7--------------7-7--5-5----------------5-5--3-3-------||
G#--7-7---------------7-7-7-7--------------7-7--5-5--------------- 5-5--3-3- -----||
C#--7-7---------------7-7-7-7--------------7-7--5-5----------------5-5--3-3-------||


(i cant quite figure out the bridge yet but ill have it soon)

and thats about it so enjoy and hopefully this helps
Добавлено: 31.08.2013
Другие материалы по этой песне:
  • Аккорды и текст

Страница создана 31.08.2013
http://primanota.ru/smile-empty-soul/jesus-is-the-manager-at-walmart-chords.htm
Привет, Гость.
Предлагаем пройти революционный курс по гитаре.
Подарок от PrimaNota.Ru, забирай!