PrimaNota.ru - самый крупный в мире бесплатный архив песенных текстов, аккордов, табулатур и нот


Smile Empty Soul - La River - таба, видео

Регистрация Запомнить меня
Войти через:  Facebook Google Twitter Vk Yandex Mail.ru

Smile Empty Soul - La River - таба, видео

Печатать
Просмотров: 219
Уроки эстрадного вокала в Санкт-Петербурге
-------------------------------------------------------------------------------
L.A. RIVER – Smile Empty Soul
-------------------------------------------------------------------------------
Tabbed by:jchall2
Email: halljacobc@gmail.com

Tuning:C#G#C#F#A#D# (Low to High)

INTRO. (Listen for Rhythm)
e|-----------------------------------------------------------------------------|
B|-----------------------------------------------------------------------------|
G|---------------------5-----------------------5-------------------------------|
D|-5---0---2---4---5---5---5---0---7---5---0---5---5---0---2----let ring-------|
A|-5---0---2---4---5---3---5---0---7---5---0---3---5---0---2-------------------|
E|-5---0---2---4---5-------5---0---7---5---0-------5---0---2-------------------|


VERSE: 1st Verse (Let them all ring) Play Twice
e|-----------------------------------------------------------------------------|
B|-----------------------------------------------------------------------------|
G|-----5--------5--------------Second Time, End With --------------------------|
D|-2---5----7---5----------------------------------------0---------------------|
A|-2---3----7---3----------------------------------------0---------------------|
E|-2--------7--------------------------------------------0---------------------|

VERSE: 2nd Verse
e|-----------------------------------------------------------------------------|
B|-----------------------------------------------------------------------------|
G|-----5--------5-------5-------5----------------------------------------------|
D|-2---5----7---5---2---5---7---5--------End With--------0---------------------|
A|-2---3----7---3---2---3---7---3------------------------0---------------------|
E|-2--------7-------2-------7----------------------------0---------------------|
                PM  .   .   .   .

Im working on the Chorus and Bridge but I figured something is better than nothing. Its 
great song and I was surprised it hasnt been tabbed yet. If you can figure out the 
and Bridge, feel free to email me them and I will make sure they go up along with 
credit to you. Enjoy!
Добавлено: 01.08.2013
Другие материалы по этой песне:
  • Аккорды и текст

Страница создана 17.07.2013
http://primanota.ru/smile-empty-soul/la-river-chords.htm
Привет, Гость.
Предлагаем пройти революционный курс по гитаре.
Подарок от PrimaNota.Ru, забирай!