PrimaNota.ru - самый крупный в мире бесплатный архив песенных текстов, аккордов, табулатур и нот


Smile Empty Soul - Mechanical Rationality - таба, видео

Регистрация Запомнить меня
Войти через:  Facebook Google Twitter Vk Yandex Mail.ru

Smile Empty Soul - Mechanical Rationality - таба, видео

Печатать
Просмотров: 237
-------------------------------------------------------------------------------
                             Mechanical Rationality - Smile Empty Soul
-------------------------------------------------------------------------------
Tabbed by: wallinman78
Email: wallinman789@yahoo.com

Tuning:C# G# C# F# A# D#
                            INTRO
e|---------------------------------------------------------------------------|
B|------10--------10--------12------12------12------10----10----8----8----8--|
G|---11--------11--------11------11------11------11-----11----11---11---11---|
D|-9--------9---------9--------9-------9-------9-------9-----9----9----9-----|
A|---------------------------------------------------------------------------|
E|---------------------------------------------------------------------------|

e|-------------------------------------------------0--0--0--0--0--0--0--0----|
B|-----7---7----5----7-----5-----3-p-0----3-p-0----3--5--5--5--5--3--3--3----|
G|---7----7----7----7-----7-----4--------------------------------------------|
D|-5-----5----5----5-----5----2---------2--------2---------------------------|
A|---------------------------------------------------------------------------|
E|---------------------------------------------------------------------------|

e|---------------------------------------------------------------------------|
B|---------------------------------------------------------------------------|
G|-4---4--4--4---------2--2--2----------2-----4--4--4---------2--2--2------2-|
D|-4-----------4--4--4----------4--4--4-----0---------4--4--4---------4-4-4--|
A|-2----------------------------------------0--------------------------------|
E|------------------------------------------0--------------------------------|

e|---------------------------------------------------------------------------|
B|---------------------------------------------------------------------------|
G|---------------------------------------------------------------------------|
D|-5--9--9--9---------7--7--7---------7--2--5--5--5--4--4--4-----------------|
A|-5----------9--9--9---------9--9--9----2-------------------5-5-5-5-5-4-4-4-|
E|-5-------------------------------------2-----------------------------------|
                            VERSE
e|-------------------------2---------5---------------------------------------|
B|-------------------------2---------5--------8----------5-------------------|
G|-------------7---4-----4--------7-----------7----------4-------------------|
D|---4---7---5---2-----4--------7----------5----------2----------------------|
A|-2---5-------------2--------5----------5----------2------------------------|
E|-------------------------------------5----------2--------------------------|

e|---------------------------------------------------------------------------|
B|---------------------------------------------------------------------------|
G|-4-------------------------------------------------------------------------|
D|-4--------------------------------5---2------------------------------------|
A|-2---7--7--7---5--5--5---0--0--0--5---2------------------------------------|
E|----------------------------------5---2------------------------------------|
                              CHORUS
                       listen to the song for the strumming pattern
e|---------------------------------------------------------------------------|
B|-3--------------3----------------------------------------------------------|
G|-2----6----4----2-----7----9-----------------------------------------------|
D|-0----4----4----0-----5----7-----------------------------------------------|
A|-0----4----2----0-----5----7-----------------------------------------------|
E|-0----4---------0-----5----7-----------------------------------------------|
                               Breakdown 
e|---------------------------------------------------------------------------|
B|---------------------------------------------------------------------------|
G|--4----7----4----7----9----------------------------------------------------|
D|--4----5----2----5----7----------------------------------------------------|
A|--2----5----2----5----7----------------------------------------------------|
E|--4----5----2----5----7----------------------------------------------------|


************************************

| /   slide up
| \   slide down
| h   hammer-on
| p   pull-off
| ~   vibrato
| +   harmonic
| x   Mute note
| b   Bend
| pb  Pre-bend
| br  Bend release
| pbr Pre-bend release
| brb Bend release bend

************************************
Добавлено: 16.10.2013
Другие материалы по этой песне:
  • Аккорды и текст

Страница создана 16.10.2013
http://primanota.ru/smile-empty-soul/mechanical-rationality-chords.htm
Привет, Гость.
Предлагаем пройти революционный курс по гитаре.
Подарок от PrimaNota.Ru, забирай!