PrimaNota.ru - самый крупный в мире бесплатный архив песенных текстов, аккордов, табулатур и нот


Smile Empty Soul - California's Lonely - аккорды и текст, таба, видео

Регистрация Запомнить меня
Войти через:  Facebook Google Twitter Vk Yandex Mail.ru

Smile Empty Soul - California's Lonely - аккорды и текст, таба, видео

Печатать
Просмотров: 254
California's Lonely
Smile Empty Soul
artist - Smile Empty Soul
Song - California's Lonely 
Album - Anxiety
Tabbed by - mihon

this good song ))) 
but i can't find anywhere tab for this ... and do my own 
hope you enjoy )))

standart tuning Eadgbe

chords used

G(sharp)m7 - 4.6.4.4.4.4.
G(sharp)madd9 - x.11.9.8.11.x
Bsus2 - 7.9.11.x.x.x.
E - 0.2.2.1.0.0.
F(sharp) - 2.4.4.3.2.2.
B - 7.9.9.8.7.7.
C(sharp)m - x.4.6.6.5.4.
Csus2 - x.4.6.6.4.4.


intro riff

G(sharp)m7

|----------6-6--4--4---------6-6--4--4------------|
|----------4-4--4--7---------4-4--4--7------------|
|----------4-4--4--4---------4-4--4--4------------|
|----4--------------------------------------------|
|----6--------------------------------------------|
|----4------------------4-------------------------|



with drums 

Bsus2                   G(sharp)madd9

|-------------------------------------------------|
|---------------------------11-11--11-11-11-------|
|---------------------------8--8---8--8--8--------|
|------11-11--11-11-11------9--9---9--9--9--------|
|------9--9---9--9--9----11-----------------------|
|---7--7--7---7--7--7-----------------------------|

Bsus2
Wait..
G(sharp)madd9
It's coming to me..
Bsus2         G(sharp)madd9
I'm starting to see..
Bsus2         G(sharp)madd9
So very clearly..

E            G(sharp)m  B 
Why I'm never happy..
E            G(sharp)m  B 
Because californias lonely..
E            G(sharp)m  B 
Californias lonely
E                  F(sharp)                   G(sharp)m7 - with this chord play intro riff
Californias lonely just like the rest of the world

Bsus2         G(sharp)madd9
I always feel sick..
Bsus2         G(sharp)madd9
So hard to breathe in..
Bsus2         G(sharp)madd9
My head is spinning..

E            G(sharp)m  B 
Or am I the only..
E            G(sharp)m  B 
The one thats always lonely..

E            G(sharp)m  B 
California's lonely
E                    F(sharp)                 G(sharp)m     B
California's lonely just like the rest of the world
E                    F(sharp)                 G(sharp)m     B
California's lonely just like the rest of the world
E                    F(sharp)                 G(sharp)m7 - with this chord play tab below
California's lonely just like the rest of the world


and then interlude 

G(sharp)m7  E  E7maj  C(sharp)m  Csus2

|------6-6--4-4-4----------------------4-4--4-4-4------4-4--4-4-4----|
|------4-4--4-4-4------9-9--9-9-9------5-5--4-4-4------5-5--4-4-4----|
|------4-4--4-4-4------9-9--8-8-8------6-6--6-6-6------6-6--6-6-6----|
|------4-4--4-4-4------9-9--9-9-9------6-6--6-6-6------6-6--6-6-6----|
|-------------------7-------7-------4--4-4--4-4-4---4--4-4--4-4-4----|
|---4---------------0------------------------------------------------|     

G(sharp)m7   E
I'm so cold..
C(sharp)m  Csus2
In this heat..
G(sharp)m7   E
I'm so alone..
C(sharp)m
In these crowded streets..


E            G(sharp)m  B 
Cause no way I'm the only..

E            G(sharp)m  B 
One that's always lonely..

E            G(sharp)m  B 
California's lonely
E                    F(sharp)                 G(sharp)m     B
California's lonely just like the rest of the world
E                    F(sharp)                 G(sharp)m     B
California's lonely just like the rest of the world
E                  F(sharp)                   G(sharp)m7 - with this chord play intro riff
California's lonely just like the rest of the world 



end on 
|--4--|
|--4--|
|--4--|
|--4--|
|--6--|
|--4--|

Добавлено: 08.09.2013
Другие материалы по этой песне:
  • Аккорды и текст

Страница создана 03.07.2012
http://primanota.ru/smile-empty-soul/californias-lonely-chords.htm
Привет, Гость.
Предлагаем пройти революционный курс по гитаре.
Подарок от PrimaNota.Ru, забирай!