PrimaNota.ru - самый крупный в мире бесплатный архив песенных текстов, аккордов, табулатур и нот


Smile Empty Soul - Faker - таба, видео

Регистрация Запомнить меня
Войти через:  Facebook Google Twitter Vk Yandex Mail.ru

Smile Empty Soul - Faker - таба, видео

Печатать
Просмотров: 95
Smile Empty Soul
Faker
Consciousness

Intro
E-------------|------------|------------|------------| 
B-------------|------------|------------|------------| 
G-------------|------------|------------|------------| 
D-------------|------------|------------|------------| 
A-0-0-0-0-5--3|0-0-0-0-5--3|0-0-0-0-5--3|0-0-0-0-8--6| 
D-0-0-0-0-----|0-0-0-0-----|0-0-0-0-----|0-0-0-0-----| 
Pm. . . .       . . . .     . . . .      . . . .

E-------------|------------|------------|-------------| 
B-------------|------------|------------|-------------| 
G-------------|------------|------------|-------------| 
D-------------|------------|------------|-------------| 
A-0-0-0-0-5--3|0-0-0-0-5--3|0-0-0-0-5--3|0-0-0-0------| 
D-0-0-0-0-----|0-0-0-0-----|0-0-0-0-----|0-0-0-0-5-3-0| 
Pm. . . .       . . . .     . . . .      . . . .

E-------------|------------|------------|------------| 
B-------------|------------|------------|------------| 
G-------------|------------|------------|------------| 
D---------7--5|--------7--5|--------7--5|------------| 
A-0-0-0-0-5--3|0-0-0-0-5--3|0-0-0-0-5--3|0-0-0-0-3--1| 
D-0-0-0-0-----|0-0-0-0-----|0-0-0-0-----|0-0-0-0-3--1| 

E-------------|------------|------------|------------| 
B-------------|------------|------------|------------| 
G-------------|------------|------------|------------| 
D---------7--5|--------7--5|--------7--5|------------| 
A-0-0-0-0-5--3|0-0-0-0-5--3|0-0-0-0-5--3|0-0-0-0-6--3| 
D-0-0-0-0-----|0-0-0-0-----|0-0-0-0-----|0-0-0-0-6--3| 

Verse 4x
E-------------|------------|------------|------------| 
B-------------|------------|------------|------------| 
G-------------|------------|------------|------------| 
D7------------|4-----------|8-----------|5-----------| 
A7------------|4-----------|8-----------|5-----------| 
D7------------|4-----------|8-----------|5-----------|

Chorus 2x
E-------------|------------|------------|------------| 
B-------------|------------|------------|------------| 
G-------------|------------|------------|------------| 
D---------7--5|--------7--5|--------7--5|------------| 
A-0-0-0-0-5--3|0-0-0-0-5--3|0-0-0-0-5--3|0-0-0-0-3--1| 
D-0-0-0-0-----|0-0-0-0-----|0-0-0-0-----|0-0-0-0-3--1| 

E-------------|------------|------------|------------| 
B-------------|------------|------------|------------| 
G-------------|------------|------------|------------| 
D---------7--5|--------7--5|--------7--5|------------| 
A-0-0-0-0-5--3|0-0-0-0-5--3|0-0-0-0-5--3|0-0-0-0-6--3| 
D-0-0-0-0-----|0-0-0-0-----|0-0-0-0-----|0-0-0-0-6--3| 

verse 4x
chorus 2x

bridge 2x
E---------|--------|--------|--------| 
B---------|--------|--------|--------| 
G---------|--------|--------|--------| 
D-77777777|77777777|55555555|55555555| 
A-77777777|77777777|55555555|55555555| 
D-77777777|77777777|55555555|55555555| 

E------------|-----------|-----------|-----------| 
B------------|-----------|-----------|-----------| 
G------------|-----------|-----------|-----------| 
D-220h2/4-444|440h4/5-555|220h2/4-444|440h4/5-555| 
A-220h2/4-444|440h4/5-555|220h2/4-444|440h4/5-555| 
D-220h2/4-444|440h4/5-555|220h2/4-444|440h4/5-555| 

last time
E---------|--------|--------|--------|---
B---------|--------|--------|--------|--- 
G---------|--------|--------|--------|--- 
D-77777777|77777777|55555555|55555555|2--
A-77777777|77777777|55555555|55555555|2--
D-77777777|77777777|55555555|55555555|2--

chorus 2x
E-------------|------------|------------|------------| 
B-------------|------------|------------|------------| 
G-------------|------------|------------|------------| 
D---------7--5|--------7--5|--------7--5|------------| 
A-0-0-0-0-5--3|0-0-0-0-5--3|0-0-0-0-5--3|0-0-0-0-3--1| 
D-0-0-0-0-----|0-0-0-0-----|0-0-0-0-----|0-0-0-0-3--1| 

E-------------|------------|------------|------------| 
B-------------|------------|------------|------------| 
G-------------|------------|------------|------------| 
D---------7--5|--------7--5|--------7--5|------------| 
A-0-0-0-0-5--3|0-0-0-0-5--3|0-0-0-0-5--3|0-0-0-0-6--3| 
D-0-0-0-0-----|0-0-0-0-----|0-0-0-0-----|0-0-0-0-6--3|

outro
E-------------|------------|------------|------------| 
B-------------|------------|------------|------------| 
G-------------|------------|------------|------------| 
D---------7--5|--------7--5|--------7--5|------------| 
A-0-0-0-0-5--3|0-0-0-0-5--3|0-0-0-0-5--3|0-0-0-0-3--1| 
D-0-0-0-0-----|0-0-0-0-----|0-0-0-0-----|0-0-0-0-3--1| 

E-------------|------------|------------|-------| 
B-------------|------------|------------|-------| 
G-------------|------------|------------|-------| 
D---------7--5|--------7--5|--------7--5|-------| 
A-0-0-0-0-5--3|0-0-0-0-5--3|0-0-0-0-5--3|0-0-0-0| 
D-0-0-0-0-----|0-0-0-0-----|0-0-0-0-----|0-0-0-0|



Добавлено: 04.12.2013
Другие материалы по этой песне:
  • Аккорды и текст

Страница создана 21.08.2013
http://primanota.ru/smile-empty-soul/faker-chords.htm
Привет, Гость.
Предлагаем пройти революционный курс по гитаре.
Подарок от PrimaNota.Ru, забирай!