PrimaNota.ru - самый крупный в мире бесплатный архив песенных текстов, аккордов, табулатур и нот


Smashing Pumpkins - One And All - таба, бас-таба, видео

Регистрация Запомнить меня
Войти через:  Facebook Google Twitter Vk Yandex Mail.ru

Smashing Pumpkins - One And All - таба, бас-таба, видео

Печатать
Просмотров: 181
Уроки эстрадного вокала в Санкт-Петербурге
Band: Smashing Pumpkins
Album: Monuments to an Elegy
Song: One and All
Tuning: Standard tuning

=================================================================================

Intro x2
E|--------------------------------------|
B|--------------------------------------|
G|--------------------------------------|
D|-2---4-22-4-5-5/5-5-55-5-5-55-5/------|
A|-x---2-22-2-2-2/3-3-33-3-3-33-3/-/555-|
E|-0-------------------------------/333-|


Verse 1
          I don't mind what you're running
          Cause you and me we're just something
          Don't just hang what you're running on
          I don't mind the sound alone one and all
          We are, we are so young We're young,
          We're young one and all 
Rhythm x8
E|--------------------------------------|
B|--------------------------------------|
G|--------------------------------------|
D|-2---4-22-4-5-5/5-5-55-5-5-55-5/------|
A|-x---2-22-2-2-2/3-3-33-3-3-33-3/-/555-|
E|-0-------------------------------/333-|
Rhythm 9th time
E|----------------------------------------|
B|----------------------------------------|
G|----------------------------------------|
D|-2---4-22-4-5-5/5-5-55-5-5-55-5/--------|
A|-x---2-22-2-2-2/3-3-33-3-3-33-3/-/555/7-|
E|-0-------------------------------/333/5-|


Chorus 1 and 2
1)      Let's get heat and we living  Don't ya hide what you're getting
        Don't ya want all the ones that stall Don't ya mind,
2)      Can't just care what you're doing, Me and You, we're just ruined
        Just a cheat for the morning strong Don't ya mind
E|----------------------------------------------------------------|
B|----------------------------------------------------------------|
G|----------------------------------------------------------------|
D|-------5-5-5-------------5-5-5----------------------------5-5-5-|
A|-7-7-7-3-3-3-5-5-5-7-7-7-3-3-3-5-5-5--7-7-7--(7)--(7)-----3-3-3-|
E|-5-5-5-------3-3-3-5-5-5-------3-3-3--5-5-5--(5)--(5)-----------|
Lead
E|----------------------------------------------------------------|
B|-------------------------------------------------------------15-|
G|-----------------------/7-5----------------------------11-14----|
D|----------9-7-9-7-5--------9-10-9~--(9)/5~--5/7-7~--12----------|
A|----------------------------------------------------------------|
E|----------------------------------------------------------------|
       if it's me at all Don't ya mind, if it's me at all 
E|-------------------------------------| 
B|-------------------------------------|
G|-------------------------------------|
D|---------------------5-5-5-----------|
A|-5-5-5-7-7-7-(7)-(7)-3-3-3-5-5-(5)-7-|
E|-3-3-3-5-5-5-(5)-(5)-------3-3-(3)-5-|
Lead
E|-------------------------------------|
B|----------------------15-------------|
G|----------------11-14----------------|
D|-----5/7-7~--12----------------------|
A|-------------------------------------|
E|-------------------------------------|

Pre Verse Rhythm x2
E|--------------------------------------|
B|--------------------------------------|
G|--------------------------------------|
D|-2---4-22-4-5-5/5-5-55-5-5-55-5/------|
A|-x---2-22-2-2-2/3-3-33-3-3-33-3/-/555-|
E|-0-------------------------------/333-|
Pre Verse Lead x2
(strum counts are not noted)
E|--------------------------------------|
B|-14---12---17-16-12-------------------|
G|-x----x----x--x--x--------------------|
D|-12---10---15-14-10-------------------|
A|--------------------------------------|

Verse 2
                I just say when you love him
                'Cause you and me we are running
                Baby sweet, are we arrest in cuffs
                I don't save for rainy days one and all
                We are, we are so young We're young, 
                We're young one and all 
Rhythm x8
E|--------------------------------------|
B|--------------------------------------|
G|--------------------------------------|
D|-2---4-22-4-5-5/5-5-55-5-5-55-5/------|
A|-x---2-22-2-2-2/3-3-33-3-3-33-3/-/555-|
E|-0-------------------------------/333-|
Rhythm 9th time
E|----------------------------------------|
B|----------------------------------------|
G|----------------------------------------|
D|-2---4-22-4-5-5/5-5-55-5-5-55-5/--------|
A|-x---2-22-2-2-2/3-3-33-3-3-33-3/-/555/7-|
E|-0-------------------------------/333/5-|

Chorus 3
1)      Can't just care what you're doing, Me and You, we're just ruined
        Just a cheat for the morning strong Don't ya mind
E|----------------------------------------------------------------|
B|----------------------------------------------------------------|
G|----------------------------------------------------------------|
D|-------5-5-5-------------5-5-5----------------------------5-5-5-|
A|-7-7-7-3-3-3-5-5-5-7-7-7-3-3-3-5-5-5--7-7-7--(7)--(7)-----3-3-3-|
E|-5-5-5-------3-3-3-5-5-5-------3-3-3--5-5-5--(5)--(5)-----------|
Lead
E|----------------------------------------------------------------|
B|-------------------------------------------------------------15-|
G|-----------------------/7-5----------------------------11-14----|
D|----------9-7-9-7-5--------9-10-9~--(9)/5~--5/7-7~--12----------|
A|----------------------------------------------------------------|
E|----------------------------------------------------------------|
         if it's me at all Don't ya mind, if it's me at all 
E|-------------------------------------| 
B|-------------------------------------|
G|-------------------------------------|
D|---------------------5-5-5-----------|
A|-5-5-5-7-7-7-(7)-(7)-3-3-3-5-5-(5)-7-|
E|-3-3-3-5-5-5-(5)-(5)-------3-3-(3)-5-|
Lead
E|-------------------------------------|
B|----------------------15-------------|
G|----------------11-14----------------|
D|-----5/7-7~--12----------------------|
A|-------------------------------------|
E|-------------------------------------|


Outro
Rhythm x8
E|--------------------------------------|
B|--------------------------------------|
G|--------------------------------------|
D|-2---4-22-4-5-5/5-5-55-5-5-55-5/------|
A|-x---2-22-2-2-2/3-3-33-3-3-33-3/-/555-|
E|-0-------------------------------/333-|
Rhythm 9th time
E|----------------------------------------|
B|----------------------------------------|
G|----------------------------------------|
D|-2---4-22-4-5-5/5-5-55-5-5-55-5/--------|
A|-x---2-22-2-2-2/3-3-33-3-3-33-3/-/555/7-|
E|-0-------------------------------/333/5-|
Outro Lead x2
E|----------------------------------------|
B|----------------------------------------|
G|------------------------12-11-9-------9-|
D|--------------------------------12-10---|
A|----------------------------------------|
E|----------------------------------------|
Добавлено: 20.07.2015
Другие материалы по этой песне:
  • Аккорды и текст

Страница создана 05.06.2015
http://primanota.ru/smashing-pumpkins/one-and-all-chords.htm
Привет, Гость.
Предлагаем пройти революционный курс по гитаре.
Подарок от PrimaNota.Ru, забирай!