PrimaNota.ru - самый крупный в мире бесплатный архив песенных текстов, аккордов, табулатур и нот


Smashing Pumpkins - Dorian - таба, видео

Регистрация Запомнить меня
Войти через:  Facebook Google Twitter Vk Yandex Mail.ru

Smashing Pumpkins - Dorian - таба, видео

Печатать
Просмотров: 130
Уроки эстрадного вокала в Санкт-Петербурге
Author/Artist: Smashing Pumpkins
Title: Dorian



Tuning (E A D G B E)
Album Tuning (c# A D G B E), (c#, D) Down ~ 10%, Strummed around third pickup.
Live Tuning (Db Ab Db Ab Db F)
Key: (E + D) -> (E + A#) or (E + D)




----|-----8------13--------8------8-----------10-----------17--13-----------8------13--|
----|-11-----11--------11-----11-----11---11------11---------------15---11-----11------|
----|----------------------------------------------------------------------------------|
----|-------------------------------------------------8v-------------------------------|
----|----------------------------------------------------------------------------------|
----|----------------------------------------------------------------------------------|


  Intro/PostChorus


-----8------8-----------10------------|
-11-----11-----11---11------11--------|
--------------------------------------|
--------------------------------8v----|
--------------------------------------|
--------------------------------------|







----|--------------------------------------------------------------------|
----|--------------------------------------------------------------------|
----|--------------------------------------------------------------------|
----|--------------------------------------------------------------------|
----|--------------------------------------------------------------------|
----|---10/12--10----6----------------10/12--10----15--------------------|


  Verse






----|----x----------x-----------x-----------x-----------x-------------------|
----|----3----------1-----------3-----------3-----------1-------------------|
----|----3----------2-----------0-----------3-----------2----------7--------|
----|----5----------3-----------0-----------5-----------3----------5--------|
----|-5------------------------------------------------------------5--------|
----|-3----------------------3----------------------------------------------|


  Bridge/Outro Chords








----|-1---------------1-------------|
----|-3---------------3-------------|
----|-3---------------0-------------|
----|-------------------------------|
----|-------------------------------|
----|-------------------------------|


  Chorus Pick
Добавлено: 05.06.2015
Другие материалы по этой песне:
  • Аккорды и текст

Страница создана 05.06.2015
http://primanota.ru/smashing-pumpkins/dorian-chords.htm
Привет, Гость.
Предлагаем пройти революционный курс по гитаре.
Подарок от PrimaNota.Ru, забирай!