PrimaNota.ru - самый крупный в мире бесплатный архив песенных текстов, аккордов, табулатур и нот


Smashing Pumpkins - Drum Fife - таба, видео

Регистрация Запомнить меня
Войти через:  Facebook Google Twitter Vk Yandex Mail.ru

Smashing Pumpkins - Drum Fife - таба, видео

Печатать
Просмотров: 217
Уроки эстрадного вокала в Санкт-Петербурге
Band: Smashing Pumpkins
Song: Drum + Fife
Album: Monuments to an Elegy
Tuning: Standard

=======================================================================================

Intro/Pre Verse x2
Lead
E|-----------------------------|
B|-----------------------------|
G|-----------------------------|
D|-----------------------------|
A|----5-3^5-3---5-3^5-3-3-3-3--|
E|--3---------3----------------|
Rhythm
E|-----------------------------|
B|-----------------------------|
G|-----------------------------|
D|----0----------0-------------|
A|----5--5-5-5---5--5-5-5------|
E|--3---/6-6-6-3---/6-6-6------|

Verse 1
Rhythm Guitar
"Away, away foul dreams
You're gonna listen now to me
No rules, or in-betweens
You're gonna listen now to me"
E|----------------------------------1--|
B|------------------------3-3/6-6-6-1--|
G|------------------------5-5/8-8-8-2--|
D|------------------------5-5/8-8-8-3--|
A|----5-3^5-3---5-3^5-3-3-3-3/6-6-6-3--|
E|--3---------3---------------------1--|
Rhythm Guitar continued
E|----------------------------------1--(1)--|
B|------------------------3-3/6-6-6-1--(1)--|
G|------------------------5-5/8-8-8-2--(2)--|
D|------------------------5-5/8-8-8-3--(3)--|
A|----5-3^5-3---5-3^5-3-3-3-3/6-6-6-3--(3)--|
E|--3---------3---------------------1--(1)--|


Bridge
"Waste all your time on another kind of boy (whoa)
I faint up on the line, a fence I'm outta count, oh"
E|--------------------------------------------|
B|--4---4-x------------------1---4-4-4-4------|
G|--3---3-x-3-3-x---7-7-7/-x-2---3-3-3-3-3-3--|
D|--5---5-x-5-5-x---8-8-8/-x-3---5-5-5-5-5-5--|
A|--3---3-x-5-5-x-5/8-8-8/-x-3---3-3-3-3-5-5--|
E|----------3-3-x-3/6-6-6/-x-1-----------3-3--|

Chorus part 1 x2
"Come on along on an eastern show
Come on along, oh my
Come on along on a winter's morn
Come on along, oh my"
E|----3----6-6-6/---3----6-6-6/---3----6-6-6/----------|
B|----3----6-6-6/---3----6-6-6/---3----6-6-6/---5-5-5--|
G|----3----7-7-7/---3----7-7-7/---3----7-7-7/---5-5-5--|
D|----5----8-8-8/---5----8-8-8/---5----8-8-8/---5-5-5--|
A|--------(8)-----------(8)-----------(8)-------3-3-3--|
E|--3-----(6)-----3-----(6)------3----(6)--------------|

Chorus interlude
"My, my, my"
E|-----------------|
B|-----------------|
G|--8----10---8----|
D|--8----10---8----|
A|--6----8----6----|
E|-----------------|

Chorus part 2 x2 @1:10
"Inside the drum and fife is steel
Racing scene to scene
To break this beast in me
Cause I will bang this drum to my dying day"
Rhythm Guitar
E|----3----6-6-6/---3----6-6-6/---3----6-6-6/----------|
B|----3----6-6-6/---3----6-6-6/---3----6-6-6/---5-5-5--|
G|----3----7-7-7/---3----7-7-7/---3----7-7-7/---5-5-5--|
D|----5----8-8-8/---5----8-8-8/---5----8-8-8/---5-5-5--|
A|--------(8)-----------(8)-----------(8)-------3-3-3--|
E|--3-----(6)-----3-----(6)------3----(6)--------------|
Lead Guitar
E|---------------------------|--------|
B|---------------------------|--------|
G|---------------------------|--------|
D|--/8----------------8---8--|-8-10~--|
A|-----10-10-6-6-8-/10-/10---|--------|
E|---------------------------|--------|
Guitar 3 x3
E|---------6--------6--6-----|
B|----3-/6--6-----6-----6/3--|
G|--3---------7-7----7-------|
D|---------------------------|
A|---------------------------|
E|---------------------------|

Pre Verse x2
E|-----------------------------|
B|-----------------------------|
G|-----------------------------|
D|----------------------5-5-5--|
A|----5-3^5-3---5-3^5-3-3-3-3--|
E|--3---------3----------------|

Verse 2
"Your mind affection drew
You're gonna listen now to me
What's done, what's left as [?]
You're gonna listen now to me"
E|-------------------------------------------|
B|----3-3-3-3---3-3-3-3--------6-6-6----1-1--|
G|----3-3-3-3---3-3-3-3--5-5-5/8-8-8/-x-2-2--|
D|----5-5-5-5---5-5-5-5--5-5-5/8-8-8/-x-3-3--|
A|----5-5-5-5---5-5-5-5--3-3-3/6-6-6/-x-3-3--|
E|--3---------3-----------------------x-1-1--|

Chorus x2
"Come on along on an eastern show
Come on along, oh my
Come on along on a winter's morn
Come on along, oh my"
E|----3----6-6-6/---3----6-6-6/---3----6-6-6/----------|
B|----3----6-6-6/---3----6-6-6/---3----6-6-6/---5-5-5--|
G|----3----7-7-7/---3----7-7-7/---3----7-7-7/---5-5-5--|
D|----5----8-8-8/---5----8-8-8/---5----8-8-8/---5-5-5--|
A|--------(8)-----------(8)-----------(8)-------3-3-3--|
E|--3-----(6)-----3-----(6)-----3-----(6)--------------|
Chorus interlude
"My, my, my"
E|-----------------|
B|-----------------|
G|--8----10---8----|
D|--8----10---8----|
A|--6----8----6----|
E|-----------------|

Chorus part 2 
Repeat to end
"Inside the drum and fife is steel
Racing scene to scene
To break this beast in me
Cause I will bang this drum to my dying day"
Rhythm Guitar
E|----3----6-6-6/---3----6-6-6/---3----6-6-6/----------|
B|----3----6-6-6/---3----6-6-6/---3----6-6-6/---5-5-5--|
G|----3----7-7-7/---3----7-7-7/---3----7-7-7/---5-5-5--|
D|----5----8-8-8/---5----8-8-8/---5----8-8-8/---5-5-5--|
A|--------(8)-----------(8)-----------(8)-------3-3-3--|
E|--3-----(6)-----3-----(6)-----3-----(6)--------------|
Lead Guitar
E|---------------------------|--------|
B|---------------------------|--------|
G|---------------------------|--------|
D|--/8----------------8---8--|-8-10~--|
A|-----10-10-6-6-8-/10-/10---|--------|
E|---------------------------|--------|
Guitar 3 x3
E|---------6--------6--6-----|
B|----3-/6--6-----6-----6/3--|
G|--3---------7-7----7-------|
D|---------------------------|
A|---------------------------|
E|---------------------------|
Добавлено: 05.06.2015
Вам также может быть интересно:
Другие материалы по этой песне:
  • Аккорды и текст

Страница создана 05.06.2015
http://primanota.ru/smashing-pumpkins/drum-fife-chords.htm
Привет, Гость.
Предлагаем пройти революционный курс по гитаре.
Подарок от PrimaNota.Ru, забирай!