PrimaNota.ru - самый крупный в мире бесплатный архив песенных текстов, аккордов, табулатур и нот


Smashing Pumpkins - Tiberius - таба, видео

Регистрация Запомнить меня
Войти через:  Facebook Google Twitter Vk Yandex Mail.ru

Smashing Pumpkins - Tiberius - таба, видео

Печатать
Просмотров: 161
Уроки эстрадного вокала в Санкт-Петербурге
Author/Artist: Smashing Pumpkins
Title: Tiberius



Tuning (d A E A a c#)
Album Tuning (c# A D G B E), Down ~ 10%, (c#, D) Down ~ 20%
Live Drop A Tuning (A E A D F# B), Down ~ 10%
Key: (E + D) -> (E + A#) or (E + D)






----|-20----------20----------21--18------20----------20----------20----------|--|
----|-----20--17------20--17----------17------20--17------20--17------20------|--|
----|-------------------------------------------------------------------------|--|
----|---------------------------------------------------------------------20--|--|
----|-------------------------------------------------------------------------|--|
----|-------------------------------------------------------------------------|--|


  Intro







----|----------------------------------------------------------------------|--|
----|----------------------------------------------------------------------|--|
----|----------------------------------------------------------------------|--|
----|----------------------------------------------------------------------|--|
----|----------------------------------------------------------------------|--|
----|-3--3--3----3--3--3----5--5--5----0--0--0----0--0--0----10--10--10----|--|


  Verse

----|--------------------------------------------------------------------------|--|
----|--------------------------------------------------------------------------|--|
----|--------------------------------------------------------------------------|--|
----|-17----------17----------18--15------17----------17----------17-----------|--|
----|-----20--17------20--17----------17------20--17------20--17------20--15---|--|
----|--------------------------------------------------------------------------|--|




----|---------------------------------------------------------------------------------------------------------------|
----|---------------------------------------------------------------------------------------------------------------|
----|---------------------------------------------------------------------------------------------------------------|
----|---------------------------------------------------------------------------------------------------------------|
----|---------------------------------------------------------------------------------------------------------------|
----|-3--3--3----3--3--3----3--3--3----3--3--3----3--3--3----7--7--7----5--5--5----5--5--5----5--5--5----5--5--5----|


  Verse End

------------------------------------|
------------------------------------|
------------------------------------|
------------------------------------|
--------------------------0---------|
-5--5--5----10--10--10----0---------|









----|---------------------------------|--|----------------------------------|
----|---------------------------------|--|----------------------------------|
----|---------------------------------|--|----------------------------------|
----|---------------------------------|--|---------------------18vv---------|
----|---------------------------------|--|-17------19----20-----------------|
----|-0---12------0---0---10---13-----|--|-0-------2-----3-----8vv-\--------|


  Bridge
Добавлено: 05.06.2015
Другие материалы по этой песне:
  • Аккорды и текст

Страница создана 05.06.2015
http://primanota.ru/smashing-pumpkins/tiberius-chords.htm
Привет, Гость.
Предлагаем пройти революционный курс по гитаре.
Подарок от PrimaNota.Ru, забирай!