PrimaNota.ru - самый крупный в мире бесплатный архив песенных текстов, аккордов, табулатур и нот


Smashing Pumpkins - Monuments - таба, видео

Регистрация Запомнить меня
Войти через:  Facebook Google Twitter Vk Yandex Mail.ru

Smashing Pumpkins - Monuments - таба, видео

Печатать
Просмотров: 74
Author/Artist: Smashing Pumpkins
Title: Monuments


Strum around the third pickup, in-between frets.


Tuning (c# A D G B E)
Album Tuning (c# A D G B E), Down ~ 10%, (c#, D) Down ~ 20%
Live Drop A Tuning (A E A D F# B), Down ~ 10%
Key: (E + D) -> (E + A) or (D + C#)



----|------------------------------|--|
----|------------------------------|--|
----|-19--------14-----------------|--|
----|------17----------------------|--|
----|------------------------------|--|
----|------------------------------|--|


  Intro/Verse                                                                 




----|-------------------------------------------------------------------------|--|
----|-------------------------------------------------------------------------|--|
----|-------------------------------------------------------------------------|--|
----|-------------------------------------------------------------------------|--|
----|-------------------------------------------------------------------------|--|
----|-4--4--4--4--4--4----4\-1--/---6----8--8--8--8--8--8----8--8-\--1--1-----|--|


  Verse                                                                       


----|--------------------------------------------|
----|--------------------------------------------|
----|-------------------------------18-----------|
----|-----------------------------------18-------|
----|--------------------------------------------|
----|-4--4--4--4--4--4----4-\-1-----6---4--------|


  Verse End                                 
                               





----|------------------------------------------------------------------------------------|
----|------------------------------------------------------------------------------------|
----|-8---9------------------------------------------------8--9--------------------------|
----|-9---10-----------------------------------------------9--10-------------------------|
----|-9---10-------------------------18-17-15-----15-------9--10-------------------------|
----|-----11-----3-------3-/4---------------------------------11-------3------3/4--------|
      A   U

  Chorus                                                                   





----|---------------------------------|--|
----|---------------------------------|--|
----|---------------------------------|--|
----|---------------------------------|--|
----|--8-----5----10----3-------------|--|
----|---------------------------------|--|


  Bridge                                                                      
Добавлено: 05.06.2015
Другие материалы по этой песне:
  • Аккорды и текст

Страница создана 05.06.2015
http://primanota.ru/smashing-pumpkins/monuments-chords.htm
Привет, Гость.
Предлагаем пройти революционный курс по гитаре.
Подарок от PrimaNota.Ru, забирай!