PrimaNota.ru - самый крупный в мире бесплатный архив песенных текстов, аккордов, табулатур и нот


Six Feet Under - When Skin Turns Blue - текст песни, таба, бас-таба, видео

Регистрация Запомнить меня
Войти через:  Facebook Google Twitter Vk Yandex Mail.ru

Six Feet Under - When Skin Turns Blue - текст песни, таба, бас-таба, видео

Печатать
Просмотров: 141
-------------------------------------------------------------------------------
                    Six Feet Under  "When Skin Turns Blue"                           
-------------------------------------------------------------------------------
Tabbed by:Rick 
E-mail:

Tuning:C standard
CFAD#GC
                                                           
|-------------------------------------------------------|
|-------------------------------------------------------|
|-------------------------------------------------------|
|---------5/6-----5---5-6------------5/6-----5---5-6-6--|
|-2-6-5---3/4-----3---3-4----2-6-5---3/4-----3---3-4-4--|
|-0-4-3-0------00---0--------0-4-3-0------00---0--------|

|----------------------------|
|----------------------------|
|----------------------------|
|-----3---3-------------5-6--|
|-2-2-1-2-1-2------5----3-4--|
|-0-0---0---0--0-0-3--0-3-4--|

|--------------------------|-------------------------|
|--------------------------|-------------------------|
|--------------------------|-------------------------|
|------/9--8-------6-------|------/9--8--------------|
|-2----/7--6---6-5-4-6\5/6-|-2----/7--6---3-2-6-5-3--|
|-0----------0-4-3---4\3/4-|-0----------0-1-0-4-3-1--|

 
|-----------------------------------------------------------|
|-----------------------------------------------------------|
|-----------------------------------------------------------|
|-----------------------------------------------------------|
|-----------------------------------------------------------|
|-00000--00000--0000000000000--00000--00000--0000000000000--|

|-------------------------------------------------------|
|-------------------------------------------------------|
|-------------------------------------------------------|
|------3---3--------------------------------------------|
|-2--2-1-2-1-2---2-3-2-3/5---2-6-2-9\6----3-6-5-9-6--3--|
|-0--0---0---0---0-1-0-1/3---0-4-0-7\4----1-4-3-7-4--1--|

Listen to the song for the structure
Hope you enjoy!

************************************

| /   slide up
| \   slide down
| h   hammer-on
| p   pull-off
| ~   vibrato
| +   harmonic
| x   Mute note
| b   Bend
| pb  Pre-bend
| br  Bend release
| pbr Pre-bend release
| brb Bend release bend

************************************
Добавлено: 20.06.2015
Другие материалы по этой песне:

Страница создана 12.03.2012
http://primanota.ru/six-feet-under/when-skin-turns-blue-chords.htm
Привет, Гость.
Предлагаем пройти революционный курс по гитаре.
Подарок от PrimaNota.Ru, забирай!