PrimaNota.ru - самый крупный в мире бесплатный архив песенных текстов, аккордов, табулатур и нот


Six Feet Under - Involuntary Movement Of Dead Flesh - таба, видео

Регистрация Запомнить меня
Войти через:  Facebook Google Twitter Vk Yandex Mail.ru

Six Feet Under - Involuntary Movement Of Dead Flesh - таба, видео

Печатать
Просмотров: 79
____________________________________________________________________________

            Involuntary Movement of Dead Flesh - Six Feet Under
____________________________________________________________________________

Tuning: A#

|A|(0:00)
                   (Play 8 Times)
|------------------|------------------|
|------------------|------------------|
|------------------|------------------|
|------------------|------------------|
|-2-3-2-3-2--2-2-2-|------------------|
|-2-3-2-3-2--2-2-2-|------------------|
|-0-1-0-1-0--0-0-0-|------------------|
          PM|------

|B|(0:29)
                          (Play 4 Times)on 4th time skip to |C|
|------------------------------|------------------------------|
|------------------------------|------------------------------|
|------------------------------|------------------------------|
|------------------------------|------------------------------|
|-3-2-2-2-2--2-2-2-2-7-2-3-2-3-|------------------------------|
|-3-2-2-2-2--2-2-2-2-7-2-3-2-3-|------------------------------|
|-1-0-0-0-0--0-0-0-0-5-0-1-0-1-|------------------------------|
 PM|---------------

|C|(0:37)

|-------------------------------------------------------------|
|-------------------------------------------------------------|
|-------------------------------------------------------------|
|-------------------------------------------------------------|
|-3-2-2-2-2--2-2-2-2-7-2-3-2-3-2-2-2-2--2-2-2-2---3----3----3-|
|-3-2-2-2-2--2-2-2-2-7-2-3-2-3-2-2-2-2--2-2-2-2---3----3----3-|
|-1-0-0-0-0--0-0-0-0-5-0-1-0-1-0-0-0-0--0-0-0-0-0-1--0-1--0-1-|
 PM|---------------         PM|---------------

go back to |A| play 4 times
go back to |B| play 4 times
go back to |C| 
go back to |B| play 4 times
go back to |C|

|D|(1:36)

|-----------------------------------------------------------------------|
|-----------------------------------------------------------------------|
|-----------------------------------------------------------------------|
|-----------------------------------------------------------------------|
|-8-----------------9-----------------8---------------------------------|
|-8-----------------9-----------------8---------------------------------|
|-6-3-3-3-3-3-3-3-3-7-4-4-4-4-4-4-4-4-6-3-3-3-3-3-3-3-3-2-2-2-2-2-2-2-2-|
 PM|---------------PM|-------------- PM|-------------------------------

repeat |D| 3 more times. Then play this twice.

(2:01)

|------------------------------------------|
|------------------------------------------|
|------------------------------------------|
|------------------------------------------|
|-6--5--4----------------------------------|
|-6--5--4----------------------------------|
|-4--3--2--2-2-2-2-2-2-2-2-2-2-2-2-2-2-2-2-|
        PM|-------------------------------

|E|(2:12)Play 4 times. 

|-------------------------|
|-------------------------|
|-------------------------|
|----5--4-----------------|
|-2--X--X--5--3-\-8--7--3-|
|-X--3--2--X--X---X--X--X-|
|-0--------3--1-\-6--5--1-|

go back to |B| play 4 times
go back to |C|
go back to |B| play 4 times
go back to |A| play 4 times

And that's it! 



Добавлено: 14.10.2013
Другие материалы по этой песне:
  • Аккорды и текст

Страница создана 14.10.2013
http://primanota.ru/six-feet-under/involuntary-movement-of-dead-flesh-chords.htm
Привет, Гость.
Предлагаем пройти революционный курс по гитаре.
Подарок от PrimaNota.Ru, забирай!