PrimaNota.ru - самый крупный в мире бесплатный архив песенных текстов, аккордов, табулатур и нот


Silverstein - In The Dark - таба, бас-таба, видео

Регистрация Запомнить меня
Войти через:  Facebook Google Twitter Vk Yandex Mail.ru

Silverstein - In The Dark - таба, бас-таба, видео

Печатать
Просмотров: 96
Tabbed by: Joshua Garcia (joshuag523@aol.com)

Tabs for the song: Drop C# by Silverstein
Please rate and let me know if you have any corrections. Thank you.


** For my tab of the whole album, go here:
http://tabs.ultimate-guitar.com/s/silverstein/i_am_alive_in_everything_i_touch_album_tab.htm **


Tuning: Drop C# (C# G# C# F# A# D#)


Intro
Guitar 1:
D#||---------------------------------------------------------------|
A#||---------------------------------------------------------------|
F#||------7--------------7--------------7--------------7-----------|
C#||--5-------1-0--4-5-------1-0--4-5-------1-0--4-5-------1-0--4--|
G#||--5-------1-0--4-5-------1-0--4-5-------1-0--4-5-------1-0--4--|
C#||--5-------1-0--4-5-------1-0--4-5-------1-0--4-5-------1-0--4--|


D#||----------------------------------------------------------------------|
A#||----------------------------------------------------------------------|
F#||------3--------------3--------------3--------------3------------------|
C#||--1-------1-0--4-1-------1-0--4-1-------1-0--4-1-------1-x-x-x-x-x-x--|
G#||--1-------1-0--4-1-------1-0--4-1-------1-0--4-1-------1-x-x-x-x-x-x--|
C#||--1-------1-0--4-1-------1-0--4-1-------1-0--4-1-------1-x-x-x-x-x-x--|


Guitar 2:
D#||---------------------------------------------------------------|
A#||---------------------------------------------------------------|
F#||---------------------------------------------------------------|
C#||--5---8---1-0--4-5---8---1-0--4-5---8---1-0--4-5---8---1-0--4--|
G#||--5-------1-0--4-5-------1-0--4-5-------1-0--4-5-------1-0--4--|
C#||--5-------1-0--4-5-------1-0--4-5-------1-0--4-5-------1-0--4--|


D#||----------------------------------------------------------------------|
A#||----------------------------------------------------------------------|
F#||----------------------------------------------------------------------|
C#||--1---5---1-0--4-1---5---1-0--4-1---5---1-0--4-1---5---1-x-x-x-x-x-x--|
G#||--1-------1-0--4-1-------1-0--4-1-------1-0--4-1-------1-x-x-x-x-x-x--|
C#||--1-------1-0--4-1-------1-0--4-1-------1-0--4-1-------1-x-x-x-x-x-x--|



Verse
Guitar 1/2:
D#||--------------------------------------------------|
A#||--------------------------------------------------|
F#||--------------------------------------------------|
C#||------8-----8-------------8-----8------12-----12--|
G#||--------------------------------------------------|
C#||--555-----5-----------555-----5----888------8-----|
      ...     .           ...     .    ...      .

D#||-------------------------------------------------------|
A#||--------------------------------8-----8----------------|
F#||-------------------------------------------------------|
C#||---------13------13--------------------------7--5p4h5--|
G#||----------------------------666-----6------------------|
C#||--101010------10-------------------------444-----------|
      . . .       .             ...     .    ...

D#||--------------------------------------------------|
A#||--------------------------------------------------|
F#||--------------------------------------------------|
C#||------8-----8-------------8-----8------12-----12--|
G#||--------------------------------------------------|
C#||--555-----5-----------555-----5----888------8-----|
      ...     .           ...     .    ...      .

D#||---------------------------------------------|
A#||---------------------------------------------|
F#||---------------------------------------------|
C#||---------13------13---------5-5-5-5-7-7-7-7--|
G#||----------------------------6-6-6-6-9-9-9-9--|
C#||--101010------10-----------------------------|
      . . .       .             . .



Chorus
Guitar 1:
D#||---------------------------------------------------|----------------------------------------------------|
A#||---------------------------------------------------|----------------------------------------------------|
F#||--12-12-14-14-15-15-12-14-14-15-15-10-10-10-10-10--|--12-12-14-14-15-15-12-14-14-15-15-10-20-20-20-19~--|
C#||--x--x--x--x--x--x--x--x--x--x--x--x--x--x--x--x---|--x--x--x--x--x--x--x--x--x--x--x--x--x--x--x--x----|
G#||--10-10-12-12-13-13-10-12-12-13-13-8--8--8--8--8---|--10-10-12-12-13-13-10-12-12-13-13-13-18-18-18-17~--|
C#||---------------------------------------------------|----------------------------------------------------|


D#||---------------------------------------------|----------------------------------------------------|
A#||---------------------------------------------|----------------------------------------------------|
F#||--14-14-15-15-12-14-14-15-15-10-10-10-10-10--|--12-12-14-14-15-15-12-14-14-15-15-10-20-20-20-19~--|
C#||--x--x--x--x--x--x--x--x--x--x--x--x--x--x---|--x--x--x--x--x--x--x--x--x--x--x--x--x--x--x--x----|
G#||--12-12-13-13-10-12-12-13-13-8--8--8--8--8---|--10-10-12-12-13-13-10-12-12-13-13-13-18-18-18-17~--|
C#||---------------------------------------------|----------------------------------------------------|


D#||---------------------------------------------|---------------------------------------------------|
A#||---------------------------------------------|---------------------------------------------------|
F#||--14-14-15-15-12-14-14-15-15-15-15\10-10-10--|--10/12-12-14-14-15-15-15-17-17-17-17-15-15-15-15--|
C#||--x--x--x--x--x--x--x--x--x--x--x-\x--x--x---|--x-/x--x--x--x--x--x--x--x--x--x--x--x--x--x--x---|
G#||--12-12-13-13-10-12-12-13-13-13-13\8--8--8---|--8-/10-10-12-12-13-13-13-15-15-15-15-13-13-13-13--|
C#||---------------------------------------------|---------------------------------------------------|


D#||---------------------------------------------------|---------------------------------------------------|
A#||---------------------------------------------------|---------------------------------------------------|
F#||--19-19-19-19-19-19-19-17-15-15-15-15-20-20-20-20--|--19-19-19-19-19-19-19-17-15-15-15-15-15-15-17-17--|
C#||--x--x--x--x--x--x--x--x--x--x--x--x--x--x--x--x---|--x--x--x--x--x--x--x--x--x--x--x--x--x--x--x--x---|
G#||--17-17-17-17-17-17-17-15-13-13-13-13-18-18-18-18--|--17-17-17-17-17-17-17-15-13-13-13-13-13-13-15-15--|
C#||---------------------------------------------------|---------------------------------------------------|


Guitar 2:
D#||-------------------------------------------------------------------|
A#||-------------------------------------------------------------------|
F#||-------------------------------------------------------------------|
C#||--1-1-1-1-1-1-1-1-1-1-1-1-1-1-1-1-1-1-1-1-1-1-1-1-1-1-1-1-0-0-0-0--|
G#||--1-1-1-1-1-1-1-1-1-1-1-1-1-1-1-1-1-1-1-1-1-1-1-1-1-1-1-1-0-0-0-0--|
C#||--1-1-1-1-1-1-1-1-1-1-1-1-1-1-1-1-1-1-1-1-1-1-1-1-1-1-1-1-0-0-0-0--|


D#||-------------------------------------------------------------------|
A#||-------------------------------------------------------------------|
F#||----------------------------------------------------------3-3-3-3--|
C#||--5-5-5-5-5-5-5-5-5-5-5-5-5-5-5-5-5-5-5-5-5-5-5-5-5-5-5-5-3-3-3-3--|
G#||--5-5-5-5-5-5-5-5-5-5-5-5-5-5-5-5-5-5-5-5-5-5-5-5-5-5-5-5-1-1-1-1--|
C#||--5-5-5-5-5-5-5-5-5-5-5-5-5-5-5-5-5-5-5-5-5-5-5-5-5-5-5-5----------|


D#||-------------------------------------------------------------------|
A#||-------------------------------------------------------------------|
F#||-------------------------------------------------------------------|
C#||--1-1-1-1-1-1-1-1-1-1-1-1-1-1-1-1-1-1-1-1-1-1-1-1-4-4-4-4-4-4-4-4--|
G#||--1-1-1-1-1-1-1-1-1-1-1-1-1-1-1-1-1-1-1-1-1-1-1-1-4-4-4-4-4-4-4-4--|
C#||--1-1-1-1-1-1-1-1-1-1-1-1-1-1-1-1-1-1-1-1-1-1-1-1-4-4-4-4-4-4-4-4--|


D#||-------------------------------------------------------------------|
A#||-------------------------------------------------------------------|
F#||----------------------------------------------------------3-3-3-3--|
C#||--5-5-5-5-5-5-5-5-5-5-5-5-5-5-5-5-5-5-5-5-5-5-5-5-5-5-5-5-3-3-3-3--|
G#||--5-5-5-5-5-5-5-5-5-5-5-5-5-5-5-5-5-5-5-5-5-5-5-5-5-5-5-5-1-1-1-1--|
C#||--5-5-5-5-5-5-5-5-5-5-5-5-5-5-5-5-5-5-5-5-5-5-5-5-5-5-5-5----------|



Pre-Verse
Guitar 1:
D#||---------------------------------------------------------------|
A#||---------------------------------------------------------------|
F#||------7--------------7--------------7--------------7-----------|
C#||--5-------1-0--4-5-------1-0--4-5-------1-0--4-5-------1-0--4--|
G#||--5-------1-0--4-5-------1-0--4-5-------1-0--4-5-------1-0--4--|
C#||--5-------1-0--4-5-------1-0--4-5-------1-0--4-5-------1-0--4--|


Guitar 2:
D#||---------------------------------------------------------------|
A#||---------------------------------------------------------------|
F#||---------------------------------------------------------------|
C#||--5---8---1-0--4-5---8---1-0--4-5---8---1-0--4-5---8---1-0--4--|
G#||--5-------1-0--4-5-------1-0--4-5-------1-0--4-5-------1-0--4--|
C#||--5-------1-0--4-5-------1-0--4-5-------1-0--4-5-------1-0--4--|



Verse
Guitar 1:
D#||------------------------------------------------|
A#||------------------------------------------------|
F#||------------------------------------------------|
C#||------5-----5-------------5-----5------8-----8--|
G#||------------------------------------------------|
C#||--555-----5-----------555-----5----888-----8----|
      ...     .           ...     .    ...     .

D#||-------------------------------------------------------|
A#||-------------------------------------------------------|
F#||--------------------------------8-----8----------------|
C#||---------10------10--------------------------7--5p4h5--|
G#||----------------------------666-----6------------------|
C#||--101010------10-------------------------444-----------|
      . . .       .             ...     .    ...

D#||-----------------------------------------------------|
A#||-----------------------------------------------------|
F#||-----------------------------------------------------|
C#||------5-----5h7-------------5-----5h7----8-----8h10--|
G#||-----------------------------------------------------|
C#||--555-----5-----55555555555-----5----888-----8-------|
      ...     .     ...........     .    ...     .

D#||------------------------------------------------------------|
A#||------------------------------------------------------------|
F#||------------------------------------------------------------|
C#||---------10------10h12----------10-10-10-10h12--------------|
G#||-----------------------------------------------12-12-12-13--|
C#||--101010------10--------------------------------------------|
      . . .       .


Guitar 2:
D#||--------------------------------------------------|
A#||--------------------------------------------------|
F#||--------------------------------------------------|
C#||------8-----8-------------8-----8------12-----12--|
G#||--------------------------------------------------|
C#||--555-----5-----------555-----5----888------8-----|
      ...     .           ...     .    ...      .

D#||-------------------------------------------------------|
A#||--------------------------------8-----8----------------|
F#||-------------------------------------------------------|
C#||---------13------13--------------------------7--5p4h5--|
G#||----------------------------666-----6------------------|
C#||--101010------10-------------------------444-----------|
      . . .       .             ...     .    ...

D#||--------------------------------------------------------|
A#||--------------------------------------------------------|
F#||--------------------------------------------------------|
C#||------8-----8h10----------8-----8h10------12-----12h13--|
G#||--------------------------------------------------------|
C#||--555-----5-----------555-----5-------888------8--------|
      ...     .           ...     .       ...      .

D#||----------------------------------------------------|
A#||----------------------------------------------------|
F#||----------------------------------------------------|
C#||---------13------13h15----------7-7-7-7h8-----------|
G#||-----------------------66666666-----------8-8-8-10--|
C#||--101010------10------------------------------------|
      . . .       .        ........



Chorus
Guitar 1:
D#||---------------------------------------------------|----------------------------------------------------|
A#||---------------------------------------------------|----------------------------------------------------|
F#||--12-12-14-14-15-15-12-14-14-15-15-10-10-10-10-10--|--12-12-14-14-15-15-12-14-14-15-15-10-20-20-20-19~--|
C#||--x--x--x--x--x--x--x--x--x--x--x--x--x--x--x--x---|--x--x--x--x--x--x--x--x--x--x--x--x--x--x--x--x----|
G#||--10-10-12-12-13-13-10-12-12-13-13-8--8--8--8--8---|--10-10-12-12-13-13-10-12-12-13-13-13-18-18-18-17~--|
C#||---------------------------------------------------|----------------------------------------------------|


D#||---------------------------------------------|----------------------------------------------------|
A#||---------------------------------------------|----------------------------------------------------|
F#||--14-14-15-15-12-14-14-15-15-10-10-10-10-10--|--12-12-14-14-15-15-12-14-14-15-15-10-20-20-20-19~--|
C#||--x--x--x--x--x--x--x--x--x--x--x--x--x--x---|--x--x--x--x--x--x--x--x--x--x--x--x--x--x--x--x----|
G#||--12-12-13-13-10-12-12-13-13-8--8--8--8--8---|--10-10-12-12-13-13-10-12-12-13-13-13-18-18-18-17~--|
C#||---------------------------------------------|----------------------------------------------------|


D#||---------------------------------------------|---------------------------------------------------|
A#||---------------------------------------------|---------------------------------------------------|
F#||--14-14-15-15-12-14-14-15-15-15-15\10-10-10--|--10/12-12-14-14-15-15-15-17-17-17-17-15-15-15-15--|
C#||--x--x--x--x--x--x--x--x--x--x--x-\x--x--x---|--x-/x--x--x--x--x--x--x--x--x--x--x--x--x--x--x---|
G#||--12-12-13-13-10-12-12-13-13-13-13\8--8--8---|--8-/10-10-12-12-13-13-13-15-15-15-15-13-13-13-13--|
C#||---------------------------------------------|---------------------------------------------------|


D#||---------------------------------------------------|---------------------------------------------------|
A#||---------------------------------------------------|---------------------------------------------------|
F#||--19-19-19-19-19-19-19-17-15-15-15-15-20-20-20-20--|--19-19-19-19-19-19-19-17-15-15-15-15-15-15-17-17--|
C#||--x--x--x--x--x--x--x--x--x--x--x--x--x--x--x--x---|--x--x--x--x--x--x--x--x--x--x--x--x--x--x--x--x---|
G#||--17-17-17-17-17-17-17-15-13-13-13-13-18-18-18-18--|--17-17-17-17-17-17-17-15-13-13-13-13-13-13-15-15--|
C#||---------------------------------------------------|---------------------------------------------------|


Guitar 2:
D#||-------------------------------------------------------------------|
A#||-------------------------------------------------------------------|
F#||-------------------------------------------------------------------|
C#||--1-1-1-1-1-1-1-1-1-1-1-1-1-1-1-1-1-1-1-1-1-1-1-1-1-1-1-1-0-0-0-0--|
G#||--1-1-1-1-1-1-1-1-1-1-1-1-1-1-1-1-1-1-1-1-1-1-1-1-1-1-1-1-0-0-0-0--|
C#||--1-1-1-1-1-1-1-1-1-1-1-1-1-1-1-1-1-1-1-1-1-1-1-1-1-1-1-1-0-0-0-0--|


D#||-------------------------------------------------------------------|
A#||-------------------------------------------------------------------|
F#||----------------------------------------------------------3-3-3-3--|
C#||--5-5-5-5-5-5-5-5-5-5-5-5-5-5-5-5-5-5-5-5-5-5-5-5-5-5-5-5-3-3-3-3--|
G#||--5-5-5-5-5-5-5-5-5-5-5-5-5-5-5-5-5-5-5-5-5-5-5-5-5-5-5-5-1-1-1-1--|
C#||--5-5-5-5-5-5-5-5-5-5-5-5-5-5-5-5-5-5-5-5-5-5-5-5-5-5-5-5----------|


D#||-------------------------------------------------------------------|
A#||-------------------------------------------------------------------|
F#||-------------------------------------------------------------------|
C#||--1-1-1-1-1-1-1-1-1-1-1-1-1-1-1-1-1-1-1-1-1-1-1-1-4-4-4-4-4-4-4-4--|
G#||--1-1-1-1-1-1-1-1-1-1-1-1-1-1-1-1-1-1-1-1-1-1-1-1-4-4-4-4-4-4-4-4--|
C#||--1-1-1-1-1-1-1-1-1-1-1-1-1-1-1-1-1-1-1-1-1-1-1-1-4-4-4-4-4-4-4-4--|


D#||-------------------------------------------------------------------|
A#||-------------------------------------------------------------------|
F#||--------------------------------------------------3-3-3-3-3-3-3-3--|
C#||--5-5-5-5-5-5-5-5-5-5-5-5-5-5-5-5-5-5-5-5-5-5-5-5-3-3-3-3-3-3-3-3--|
G#||--5-5-5-5-5-5-5-5-5-5-5-5-5-5-5-5-5-5-5-5-5-5-5-5-1-1-1-1-1-1-1-1--|
C#||--5-5-5-5-5-5-5-5-5-5-5-5-5-5-5-5-5-5-5-5-5-5-5-5------------------|


Guitar 1/2:
D#||------|
A#||------|
F#||------|
C#||--1~--|
G#||--1~--|
C#||--1~--|



Breakdown
Guitar 1/2:
D#||--------------|
A#||--------------|
F#||--------------|
C#||--(feedback)--|
G#||--------------|
C#||--------------|


D#||-------------------------------------------------------------------|
A#||-------------------------------------------------------------------|
F#||-------------------------------------------------------------------|
C#||--1-1-1-1-1-1-1-1-1-1-1-1-1-1-1-1-5-5-5-5-5-5-5-5-5-5-5-5-5-5-5-5--|
G#||--1-1-1-1-1-1-1-1-1-1-1-1-1-1-1-1-5-5-5-5-5-5-5-5-5-5-5-5-5-5-5-5--|
C#||--1-1-1-1-1-1-1-1-1-1-1-1-1-1-1-1-5-5-5-5-5-5-5-5-5-5-5-5-5-5-5-5--|
      . . . . . . . . . . . . . . . . . . . . . .

D#||--------------------------------------------------------------|
A#||--------------------------------------------------------------|
F#||--------------------------------------------------------------|
C#||--1-1-1-1-1-1-1-1-1-1-1-1-1-1-1-1-4-4-4-4-4-4-4-4-(feedback)--|
G#||--1-1-1-1-1-1-1-1-1-1-1-1-1-1-1-1-4-4-4-4-4-4-4-4-------------|
C#||--1-1-1-1-1-1-1-1-1-1-1-1-1-1-1-1-4-4-4-4-4-4-4-4-------------|


D#||-----------------------------------------|------------------------------------------|
A#||-----------------------------------------|------------------------------------------|
F#||----------8---8---8-8---8---8-8---8---8--|----------8---8---8-8---8---8b8b--8b--8b--|
C#||--1~------x---x---x-x---x---x-x---x---x--|--1~------x---x---x-x---x---x-x---x---x---|
G#||--1~------6---6---6-6---6---6-6---6---6--|--1~------6---6---6-6---6---6-6---6---6---|
C#||--1~-------------------------------------|--1~--------------------------------------|


D#||-----------------------------------------|------------------------------------------|
A#||-----------------------------------------|------------------------------------------|
F#||----------12--12--1212--12--1212--12--12-|----------12--12--1212--12--12b12b--------|
C#||--5~------x---x---x-x---x---x-x---x---x--|--5~------x---x---x-x---x---x--x---x-11\--|
G#||--5~------10--10--1010--10--1010--10--10-|--5~------10--10--1010--10--10-10--x-11\--|
C#||--5~-------------------------------------|--5~-------------------------------x-11\--|


D#||-----------------------------------------|------------------------------------------|
A#||-----------------------------------------|------------------------------------------|
F#||----------8---8---8-8---8---8-8---8---8--|----------8---8---8-8---8---8b8b--8b--8b--|
C#||--1~------x---x---x-x---x---x-x---x---x--|--1~------x---x---x-x---x---x-x---x---x---|
G#||--1~------6---6---6-6---6---6-6---6---6--|--1~------6---6---6-6---6---6-6---6---6---|
C#||--1~-------------------------------------|--1~--------------------------------------|


D#||-----------------------------------------|--------------------------------------|
A#||-----------------------------------------|--------------------------------------|
F#||----------12--12--1212--12--1212--12--12-|----------12--12--12------------------|
C#||--5~------x---x---x-x---x---x-x---x---x--|--5~------x---x---x--5-5-5-5-5-5-5-5--|
G#||--5~------10--10--1010--10--1010--10--10-|--5~------10--10--10-5-5-5-5-5-5-5-5--|
C#||--5~-------------------------------------|--5~-----------------5-5-5-5-5-5-5-5--|
                                                                   . . .



Interlude
Guitar 1:
D#||---------------------|
A#||---------------------|
F#||--12-12-14-14-15-15--|
C#||--x--x--x--x--x--x---|
G#||--10-10-12-12-13-13--|
C#||---------------------|


Guitar 2:
D#||-----|
A#||-----|
F#||-----|
C#||--1--|
G#||--1--|
C#||--1--|



Chorus
Guitar 1:
D#||---------------------------------|----------------------------------------------------|
A#||---------------------------------|----------------------------------------------------|
F#||--12-14-14-15-15-10-10-10-10-10--|--12-12-14-14-15-15-12-14-14-15-15-10-20-20-20-19~--|
C#||--x--x--x--x--x--x--x--x--x--x---|--x--x--x--x--x--x--x--x--x--x--x--x--x--x--x--x----|
G#||--10-12-12-13-13-8--8--8--8--8---|--10-10-12-12-13-13-10-12-12-13-13-13-18-18-18-17~--|
C#||---------------------------------|----------------------------------------------------|


D#||---------------------------------------------|----------------------------------------------------|
A#||---------------------------------------------|----------------------------------------------------|
F#||--14-14-15-15-12-14-14-15-15-10-10-10-10-10--|--12-12-14-14-15-15-12-14-14-15-15-10-20-20-20-19~--|
C#||--x--x--x--x--x--x--x--x--x--x--x--x--x--x---|--x--x--x--x--x--x--x--x--x--x--x--x--x--x--x--x----|
G#||--12-12-13-13-10-12-12-13-13-8--8--8--8--8---|--10-10-12-12-13-13-10-12-12-13-13-13-18-18-18-17~--|
C#||---------------------------------------------|----------------------------------------------------|


D#||---------------------------------------------|---------------------------------------------------|
A#||---------------------------------------------|---------------------------------------------------|
F#||--14-14-15-15-12-14-14-15-15-15-15\10-10-10--|--10/12-12-14-14-15-15-15-17-17-17-17-15-15-15-15--|
C#||--x--x--x--x--x--x--x--x--x--x--x-\x--x--x---|--x-/x--x--x--x--x--x--x--x--x--x--x--x--x--x--x---|
G#||--12-12-13-13-10-12-12-13-13-13-13\8--8--8---|--8-/10-10-12-12-13-13-13-15-15-15-15-13-13-13-13--|
C#||---------------------------------------------|---------------------------------------------------|


D#||---------------------------------------------------|---------------------------------------------------|
A#||---------------------------------------------------|---------------------------------------------------|
F#||--19-19-19-19-19-19-19-17-15-15-15-15-20-20-20-20--|--19-19-19-19-19-19-19-17-15-15-15-15-15-15-17-17--|
C#||--x--x--x--x--x--x--x--x--x--x--x--x--x--x--x--x---|--x--x--x--x--x--x--x--x--x--x--x--x--x--x--x--x---|
G#||--17-17-17-17-17-17-17-15-13-13-13-13-18-18-18-18--|--17-17-17-17-17-17-17-15-13-13-13-13-13-13-15-15--|
C#||---------------------------------------------------|---------------------------------------------------|


Guitar 2:
D#||-------------------------------------------------------|
A#||-------------------------------------------------------|
F#||-------------------------------------------------------|
C#||--1-1-1-1-1-1-1-1-1-1-1-1-1-1-1-1-1-1-1-1-1-1-0-0-0-0--|
G#||--1-1-1-1-1-1-1-1-1-1-1-1-1-1-1-1-1-1-1-1-1-1-0-0-0-0--|
C#||--1-1-1-1-1-1-1-1-1-1-1-1-1-1-1-1-1-1-1-1-1-1-0-0-0-0--|


D#||-------------------------------------------------------------------|
A#||-------------------------------------------------------------------|
F#||----------------------------------------------------------3-3-3-3--|
C#||--5-5-5-5-5-5-5-5-5-5-5-5-5-5-5-5-5-5-5-5-5-5-5-5-5-5-5-5-3-3-3-3--|
G#||--5-5-5-5-5-5-5-5-5-5-5-5-5-5-5-5-5-5-5-5-5-5-5-5-5-5-5-5-1-1-1-1--|
C#||--5-5-5-5-5-5-5-5-5-5-5-5-5-5-5-5-5-5-5-5-5-5-5-5-5-5-5-5----------|


D#||-------------------------------------------------------------------|
A#||-------------------------------------------------------------------|
F#||-------------------------------------------------------------------|
C#||--1-1-1-1-1-1-1-1-1-1-1-1-1-1-1-1-1-1-1-1-1-1-1-1-4-4-4-4-4-4-4-4--|
G#||--1-1-1-1-1-1-1-1-1-1-1-1-1-1-1-1-1-1-1-1-1-1-1-1-4-4-4-4-4-4-4-4--|
C#||--1-1-1-1-1-1-1-1-1-1-1-1-1-1-1-1-1-1-1-1-1-1-1-1-4-4-4-4-4-4-4-4--|


D#||-------------------------------------------------------------------|
A#||-------------------------------------------------------------------|
F#||--------------------------------------------------3-3-3-3-3-3-3-3--|
C#||--5-5-5-5-5-5-5-5-5-5-5-5-5-5-5-5-5-5-5-5-5-5-5-5-3-3-3-3-3-3-3-3--|
G#||--5-5-5-5-5-5-5-5-5-5-5-5-5-5-5-5-5-5-5-5-5-5-5-5-1-1-1-1-1-1-1-1--|
C#||--5-5-5-5-5-5-5-5-5-5-5-5-5-5-5-5-5-5-5-5-5-5-5-5------------------|



Intro
Guitar 1:
D#||------------------|
A#||------------------|
F#||------7-----------|
C#||--5-------1-0--4--|
G#||--5-------1-0--4--|
C#||--5-------1-0--4--|


Guitar 2:
D#||------------------|
A#||------------------|
F#||------------------|
C#||--5---8---1-0--4--|
G#||--5-------1-0--4--|
C#||--5-------1-0--4--|




Tablature Legend
----------------
 h   hammer-on
 p   pull-off
 b   bend
 pb  pre-bend
 r   release bend
 ~   hold / vibrato
 .   palm mute
 /   slide up
 \   slide down
 *   pinch harmonic
 '   natural harmonic
 x   mute note
 T   tap
Добавлено: 21.12.2015
Другие материалы по этой песне:
  • Аккорды и текст

Страница создана 31.10.2015
http://primanota.ru/silverstein/in-dark-chords.htm
Привет, Гость.
Предлагаем пройти революционный курс по гитаре.
Подарок от PrimaNota.Ru, забирай!