PrimaNota.ru - самый крупный в мире бесплатный архив песенных текстов, аккордов, табулатур и нот


Silverstein - I Am Alive In Everything I Touch (album) - таба, видео

Регистрация Запомнить меня
Войти через:  Facebook Google Twitter Vk Yandex Mail.ru

Silverstein - I Am Alive In Everything I Touch (album) - таба, видео

Печатать
Просмотров: 87
Tabbed by: Joshua Garcia (joshuag523@aol.com)

Tabs for the album: I Am Alive In Everything I Touch by Silverstein
Please rate and let me know if you have any corrections. Thank you.


*To skip to a certain song, hold Ctrl + F, type T followed by the track number, and click Next.*


Tracklist:

T01.  Toronto (Abridged)
T02.  A Midwestern State of Emergency
T03.  Face of the Earth
T04.  Heaven, Hell and Purgatory
T05.  Buried at Sea
T06.  Late on 6th
T07.  Milestone
T08.  The Continual Condition
T09.  Desert Nights
T10.  In the Dark
T11.  Je me Souviens
T12.  Toronto (Unabridged)




____________________________________________________________________________________________________

                                       T01.   TORONTO (ABRIDGED)
____________________________________________________________________________________________________





Tuning: Half-Step Down (D# G# C# F# A# D#)


**Capo - 3rd Fret**


Acoustic 1:
D#||---------------------------------|-----------------------------------|
A#||----------3----------------0~----|----------3----------------0~------|
F#||--------0---0------4\2--0--2/4~--|--------0---0------4\2--0--2/4--0--|
C#||------4-------0~-----------------|------4-------0~-------------------| (Repeat and fade out)
G#||----2----------------------------|----2------------------------------|
D#||--0------------------------------|--0--------------------------------|





____________________________________________________________________________________________________

                               T02.   A MIDWESTERN STATE OF EMERGENCY
____________________________________________________________________________________________________





Tuning: Drop C# (C# G# C# F# A# D#)


Intro
Guitar 1:
D#||-----------------------------------------------------|
A#||-----------------------------------------------------|
F#||-----------------------------------------------------|
C#||-----------------------------------------------------| x2
G#||--------5----------5-5-5-4\----6-5-----6--5----------|
C#||--0-5-8----8-7-5-0-----------------8-5-------8-5--4--|


Guitar 1/2:
D#||-----------------------------------------------------|
A#||-----------------------------------------------------|
F#||-----------------------------------------------------|
C#||-----------------------------------------------------| x2
G#||--------5----------5-5-5-4\----6-5-----6--5----------|
C#||--0-5-8----8-7-5-0-----------------8-5-------8-5--4--|


Guitar 1:
D#||---------------------------------------|
A#||--8~---8~---8~---8~---8-8-8-8-8-8-8-8--|
F#||--x----x----x----x----x-x-x-x-x-x-x-x--|
C#||--5~---5~---5~---5~---5-5-5-5-5-5-5-5--|
G#||---------------------------------------|
C#||---------------------------------------|


Guitar 2:
D#||---------------------------------------|
A#||---------------------------------------|
F#||---------------------------------------|
C#||--5~---5~---5~---5~---5-5-5-5-5-5-5-5--|
G#||--5~---5~---5~---5~---5-5-5-5-5-5-5-5--|
C#||--5~---5~---5~---5~---5-5-5-5-5-5-5-5--|



Verse
Guitar 1:
D#||------------------------------------------------------------------|
A#||--8---8~------8---8~------8-11---11~------13-15---10~----10---10--|
F#||--x---x-------x---x-------x-x----x--------x--x----x------x----x---|
C#||--5---5~------5---5~------5-8----8~-------10-12---7~-----7----7---|
G#||------------------------------------------------------------------|
C#||------------------------------------------------------------------|


D#||----------------------------------------------------------------------|
A#||--8---8~------8---8~------8-11---11~------13-15---10~--10-10---11-11--|
F#||--x---x-------x---x-------x-x----x--------x--x----x----x--x----x--x---|
C#||--5---5~------5---5~------5-8----8~-------10-12---7~---7--7----8--8---|
G#||----------------------------------------------------------------------|
C#||----------------------------------------------------------------------|


Guitar 2:
D#||------------------------------------------------------------------|
A#||------------------------------------------------------------------|
F#||------------------------------------------------------------------|
C#||--8---8~------8---8~------8-12---12~------12-13---13~----13---13--|
G#||--5---5~------5---5~------5-13---13~------13-15---15~----15---15--|
C#||--5---5~------5---5~------5-12---12~------12-13---13~----13---13--|


D#||-----------------------------------------------------------------------|
A#||-----------------------------------------------------------------------|
F#||-----------------------------------------------------------------------|
C#||--8---8~------8---8~------8-12---12~------12-13---13~---13-13---13-13--|
G#||--5---5~------5---5~------5-13---13~------13-15---15~---15-15---15-15--|
C#||--5---5~------5---5~------5-12---12~------12-13---13~---13-13---13-13--|



Pre-Chorus
Guitar 1:
D#||-----------------------------------------------------------|
A#||--11--1111--1111--111111--111111--10---1010---8---10---11--|
F#||--x---x-x---x-x---x-x-x---x-x-x---x----x-x----x---x----x---|
C#||--8---8-8---8-8---8-8-8---8-8-8---7----7-7----5---7----8---|
G#||-----------------------------------------------------------|
C#||-----------------------------------------------------------|


D#||---------------------------------------------------------|
A#||--13--11--11-111111--1111-13-18--15--15--151515--151515--|
F#||--x---x---x--x-x-x---x-x--x--x---x---x---x-x-x--x-x-x----|
C#||--10--8---8--8-8-8---8-8--10-15--12--12--121212--121212--|
G#||---------------------------------------------------------|
C#||---------------------------------------------------------|


D#||-----------------------------------------------------------|
A#||--11--1111--1111--111111--111111--10---1010---8---10---11--|
F#||--x---x-x---x-x---x-x-x---x-x-x---x----x-x----x---x----x---|
C#||--8---8-8---8-8---8-8-8---8-8-8---7----7-7----5---7----8---|
G#||-----------------------------------------------------------|
C#||-----------------------------------------------------------|


D#||-----------------------------------------------------------|
A#||--13--11--11-111111--1111-13-18--15--15--151515--16161616--|
F#||--x---x---x--x-x-x---x-x--x--x---x---x---x-x-x---x-x-x-x---|
C#||--10--8---8--8-8-8---8-8--10-15--12--12--121212--13131313--|
G#||-----------------------------------------------------------|
C#||-----------------------------------------------------------|


Guitar 2:
D#||---------------------------------------------|
A#||---------------------------------------------|
F#||---------------------------------------------|
C#||--8--88--88--888--888---8--88--88--888--888--|
G#||--5--55--55--555--555---5--55--55--555--555--|
C#||--5--55--55--555--555---5--55--55--555--555--|


D#||-------------------------------------------------------------------|
A#||-------------------------------------------------------------------|
F#||-------------------------------------------------------------------|
C#||--12--1212--1212--121212--121212---13--1313--1313--131313--131313--|
G#||--13--1313--1313--131313--131313---15--1515--1515--151515--151515--|
C#||--12--1212--1212--121212--121212---13--1313--1313--131313--131313--|


Guitar 1:
D#||----------------------------------|
A#||-----------------11~---11~---13~--|
F#||-----------------x-----x-----x----|
C#||-----------------8~----8~----10~--|
G#||--------5-------------------------|
C#||--0-5-8----8-5-0------------------|


Guitar 2:
D#||--------------------------------|
A#||--------------------------------|
F#||--------------------------------|
C#||---------------------5---5---7--|
G#||---------------------5---5---7--|
C#||---------------------5---5---7--|



Chorus
Guitar 1:
D#||--------------------------------------------------|
A#||--------------------------------------------------|
F#||--7---7---7-7---10---12-14---14---14-14---12---10-|
C#||--x---x---x-x---x----x--x----x----x--x----x----x--|
G#||--5---5---5-5---8----10-12---12---12-12---10---8--|
C#||--------------------------------------------------|


D#||------------------------------------------------------|
A#||------------------------------------------------------|
F#||--15---15---15-15---14---12-14---12---10-12---10---8--|
C#||--x----x----x--x----x----x--x----x----x--x----x----x--| x2
G#||--13---13---13-13---12---10-12---10---8--10---8----6--|
C#||------------------------------------------------------|


D#||--------------------------|
A#||--------------------------|
F#||--7---7---7-7---8---10-5--|
C#||--x---x---x-x---x---x--x--|
G#||--5---5---5-5---6---8--3--|
C#||--------------------------|


Guitar 2 (Dub):
D#||-------------------------------------------------------|
A#||--15---15---15-15---15---15-13---13---13-10---10---10--|
F#||--x----x----x--x----x----x--x----x----x--x----x----x---|
C#||--12---12---12-12---12---12-10---10---10-7----7----7---|
G#||-------------------------------------------------------|
C#||-------------------------------------------------------|


D#||-----------------------------------------------------|
A#||--11---11---11-11---11---11-11---11---11-10---8---6--|
F#||--x----x----x--x----x----x--x----x----x--x----x---x--|
C#||--8----8----8--8----8----8--8----8----8--7----5---3--|
G#||-----------------------------------------------------|
C#||-----------------------------------------------------|


D#||-------------------------------------------------------|
A#||--15---15---15-15---15---15-13---13---13-10---10---10--|
F#||--x----x----x--x----x----x--x----x----x--x----x----x---|
C#||--12---12---12-12---12---12-10---10---10-7----7----7---|
G#||-------------------------------------------------------|
C#||-------------------------------------------------------|


D#||-------------------------------------------------------|
A#||--11---11---11-11---11---11-11---11---11-18---15---15--|
F#||--x----x----x--x----x----x--x----x----x--x----x----x---|
C#||--8----8----8--8----8----8--8----8----8--15---12---12--|
G#||-------------------------------------------------------|
C#||-------------------------------------------------------|


D#||---------------------------------------|
A#||--15---15---15-15---16---18-13~--------|
F#||--x----x----x--x----x----x--x----------|
C#||--12---12---12-12---13---15-10~----7~--|
G#||-----------------------------------8~--|
C#||-----------------------------------7~--|


Guitar 2:
D#||-----------------------------------------------------------------------------------|
A#||-----------------------------------------------------------------------------------|
F#||------------------------------------------------------------------------8---8---7--|
C#||--8---8---8-8---8---8-7---7---7-3---3---3-5---5---5-5---5---5-5---5---5-8---8---7--| x2
G#||--8---8---8-8---8---8-7---7---7-3---3---3-5---5---5-5---5---5-5---5---5-6---6---5--|
C#||--8---8---8-8---8---8-7---7---7-3---3---3-5---5---5-5---5---5-5---5---5------------|


D#||----------------------------|
A#||----------------------------|
F#||----------------------------|
C#||--8---8---8-8---10---12-7~--|
G#||--8---8---8-8---10---12-7~--|
C#||--8---8---8-8---10---12-7~--|



Verse
Guitar 1:
D#||-------|-----------|
A#||-------|--10---10--|
F#||-------|--x----x---|
C#||--'7~--|--7----7---|
G#||-------|-----------|
C#||-------|-----------|


D#||----------------------------------------------------------------------|
A#||--8---8~------8---8~------8-11---11~------13-15---10~--10-10---11-11--|
F#||--x---x-------x---x-------x-x----x--------x--x----x----x--x----x--x---|
C#||--5---5~------5---5~------5-8----8~-------10-12---7~---7--7----8--8---|
G#||----------------------------------------------------------------------|
C#||----------------------------------------------------------------------|


Guitar 2:
D#||------------------------------------------------------------------|
A#||------------------------------------------------------------------|
F#||------------------------------------------------------------------|
C#||--8---8~------8---8~------8-12---12~------12-13---13~----13---13--|
G#||--5---5~------5---5~------5-13---13~------13-15---15~----15---15--|
C#||--5---5~------5---5~------5-12---12~------12-13---13~----13---13--|


D#||-----------------------------------------------------------------------|
A#||-----------------------------------------------------------------------|
F#||-----------------------------------------------------------------------|
C#||--8---8~------8---8~------8-12---12~------12-13---13~---13-13---13-13--|
G#||--5---5~------5---5~------5-13---13~------13-15---15~---15-15---15-15--|
C#||--5---5~------5---5~------5-12---12~------12-13---13~---13-13---13-13--|



Pre-Chorus
Guitar 1:
D#||-----------------------------------------------------------|
A#||--11--1111--1111--111111--111111--10---1010---8---10---11--|
F#||--x---x-x---x-x---x-x-x---x-x-x---x----x-x----x---x----x---|
C#||--8---8-8---8-8---8-8-8---8-8-8---7----7-7----5---7----8---|
G#||-----------------------------------------------------------|
C#||-----------------------------------------------------------|


D#||---------------------------------------------------------|
A#||--13--11--11-111111--1111-13-18--15--15--151515--151515--|
F#||--x---x---x--x-x-x---x-x--x--x---x---x---x-x-x--x-x-x----|
C#||--10--8---8--8-8-8---8-8--10-15--12--12--121212--121212--|
G#||---------------------------------------------------------|
C#||---------------------------------------------------------|


D#||-----------------------------------------------------------|
A#||--11--1111--1111--111111--111111--10---1010---8---10---11--|
F#||--x---x-x---x-x---x-x-x---x-x-x---x----x-x----x---x----x---|
C#||--8---8-8---8-8---8-8-8---8-8-8---7----7-7----5---7----8---|
G#||-----------------------------------------------------------|
C#||-----------------------------------------------------------|


D#||-----------------------------------------------------------|
A#||--13--11--11-111111--1111-13-18--15--15--151515--16161616--|
F#||--x---x---x--x-x-x---x-x--x--x---x---x---x-x-x---x-x-x-x---|
C#||--10--8---8--8-8-8---8-8--10-15--12--12--121212--13131313--|
G#||-----------------------------------------------------------|
C#||-----------------------------------------------------------|


Guitar 2:
D#||---------------------------------------------|
A#||---------------------------------------------|
F#||---------------------------------------------|
C#||--8--88--88--888--888---8--88--88--888--888--|
G#||--5--55--55--555--555---5--55--55--555--555--|
C#||--5--55--55--555--555---5--55--55--555--555--|


D#||-------------------------------------------------------------------|
A#||-------------------------------------------------------------------|
F#||-------------------------------------------------------------------|
C#||--12--1212--1212--121212--121212---13--1313--1313--131313--131313--|
G#||--13--1313--1313--131313--131313---15--1515--1515--151515--151515--|
C#||--12--1212--1212--121212--121212---13--1313--1313--131313--131313--|


Guitar 1:
D#||----------------------------------|
A#||-----------------11~---11~---13~--|
F#||-----------------x-----x-----x----|
C#||-----------------8~----8~----10~--|
G#||--------5-------------------------|
C#||--0-5-8----8-5-0------------------|


Guitar 2:
D#||--------------------------------|
A#||--------------------------------|
F#||--------------------------------|
C#||---------------------5---5---7--|
G#||---------------------5---5---7--|
C#||---------------------5---5---7--|



Chorus
Guitar 1:
D#||--------------------------------------------------|
A#||--------------------------------------------------|
F#||--7---7---7-7---10---12-14---14---14-14---12---10-|
C#||--x---x---x-x---x----x--x----x----x--x----x----x--|
G#||--5---5---5-5---8----10-12---12---12-12---10---8--|
C#||--------------------------------------------------|


D#||------------------------------------------------------|
A#||------------------------------------------------------|
F#||--15---15---15-15---14---12-14---12---10-12---10---8--|
C#||--x----x----x--x----x----x--x----x----x--x----x----x--| x3
G#||--13---13---13-13---12---10-12---10---8--10---8----6--|
C#||------------------------------------------------------|


D#||--------------------------------|
A#||--------------------------------|
F#||--7---7---7-7---8---10-5~-------|
C#||--x---x---x-x---x---x--x----3~--|
G#||--5---5---5-5---6---8--3~---3~--|
C#||----------------------------3~--|


Guitar 2 (Dub):
D#||-------------------------------------------------------|
A#||--15---15---15-15---15---15-13---13---13-10---10---10--|
F#||--x----x----x--x----x----x--x----x----x--x----x----x---|
C#||--12---12---12-12---12---12-10---10---10-7----7----7---|
G#||-------------------------------------------------------|
C#||-------------------------------------------------------|


D#||-----------------------------------------------------|
A#||--11---11---11-11---11---11-11---11---11-10---8---6--|
F#||--x----x----x--x----x----x--x----x----x--x----x---x--|
C#||--8----8----8--8----8----8--8----8----8--7----5---3--|
G#||-----------------------------------------------------|
C#||-----------------------------------------------------|


D#||-------------------------------------------------------|
A#||--15---15---15-15---15---15-13---13---13-10---10---10--|
F#||--x----x----x--x----x----x--x----x----x--x----x----x---|
C#||--12---12---12-12---12---12-10---10---10-7----7----7---|
G#||-------------------------------------------------------|
C#||-------------------------------------------------------|


D#||-------------------------------------------------------|
A#||--11---11---11-11---11---11-11---11---11-18---15---15--|
F#||--x----x----x--x----x----x--x----x----x--x----x----x---|
C#||--8----8----8--8----8----8--8----8----8--15---12---12--|
G#||-------------------------------------------------------|
C#||-------------------------------------------------------|


D#||-------------------------------------------------------|
A#||--15---15---15-15---15---15-13---13---13-10---10---10--|
F#||--x----x----x--x----x----x--x----x----x--x----x----x---|
C#||--12---12---12-12---12---12-10---10---10-7----7----7---|
G#||-------------------------------------------------------|
C#||-------------------------------------------------------|


D#||-----------------------------------------------------|
A#||--11---11---11-11---11---11-11---11---11-10---8---6--|
F#||--x----x----x--x----x----x--x----x----x--x----x---x--|
C#||--8----8----8--8----8----8--8----8----8--7----5---3--|
G#||-----------------------------------------------------|
C#||-----------------------------------------------------|


D#||---------------------------------------|
A#||--15---15---15-15---16---18-13~--------|
F#||--x----x----x--x----x----x--x----------|
C#||--12---12---12-12---13---15-10~----3~--|
G#||-----------------------------------3~--|
C#||-----------------------------------3~--|


Guitar 2:
D#||-----------------------------------------------------------------------------------|
A#||-----------------------------------------------------------------------------------|
F#||------------------------------------------------------------------------8---8---7--|
C#||--8---8---8-8---8---8-7---7---7-3---3---3-5---5---5-5---5---5-5---5---5-8---8---7--| x3
G#||--8---8---8-8---8---8-7---7---7-3---3---3-5---5---5-5---5---5-5---5---5-6---6---5--|
C#||--8---8---8-8---8---8-7---7---7-3---3---3-5---5---5-5---5---5-5---5---5------------|


D#||---------------------------------|
A#||---------------------------------|
F#||---------------------------------|
C#||--8---8---8-8---10---12-7~---3~--|
G#||--8---8---8-8---10---12-7~---3~--|
C#||--8---8---8-8---10---12-7~---3~--|



Bridge
Guitar 1/2:
D#||-----------------------------------------|
A#||-----------------------------------------|
F#||-----------------------------------------|
C#||--5~---5~---5~---5~---5~---5~---5~---5~--|
G#||--5~---5~---5~---5~---5~---5~---5~---5~--|
C#||--5~---5~---5~---5~---5~---5~---5~---5~--|


Guitar 1:
D#||----------------------------------------------------|
A#||----------------------------------------------------|
F#||----------------------------------------------------|
C#||----------------------------------------------------|
G#||----------------------------------------------------|
C#||--/17-17-17-17-17-17-17-17-17-17-17-17-17-17-17-17--|


Guitar 2:
D#||-----------------------------------|
A#||-----------------------------------|
F#||-----------------------------------|
C#||--5-5-5-5-5-5-5-5-5-5-5-5-5-5-5-5--|
G#||--5-5-5-5-5-5-5-5-5-5-5-5-5-5-5-5--|
C#||--5-5-5-5-5-5-5-5-5-5-5-5-5-5-5-5--|



Breakdown
Guitar 1:
D#||-----------------------------------------------------|
A#||-----------------------------------------------------|
F#||-----------------------------------------------------|
C#||-----------------------------------------------------|
G#||--------5----------5-5-5-4\----6-5-----6--5----------|
C#||--0-5-8----8-7-5-0-----------------8-5-------8-5--4--|


D#||------------------------------------------------|
A#||------------------------------------------------|
F#||------------------------------------------------|
C#||------------------------------------------------|
G#||--------5----------5-5-5-4\----6-5-----6--5-----|
C#||--0-5-8----8-7-5-0-----------------8-5-------8--|


Guitar 1/2:
D#||-------|
A#||-------|
F#||-------|
C#||--(4)--|
G#||--(4)--|
C#||--(4)--|


D#||-----------------------------------------------------|
A#||-----------------------------------------------------|
F#||-----------------------------------------------------|
C#||-----------------------------------------------------| x2
G#||--------5----------5-5-5-4\----6-5-----6--5----------|
C#||--0-5-8----8-7-5-0-----------------8-5-------8-5--4--|


D#||------------------------|
A#||------------------------|
F#||------------------------|
C#||--5~---5~---5~---x13\\--|
G#||--5~---5~---5~---x13\\--|
C#||--5~---5~---5~---x13\\--|


D#||-----------------------------------------------------|
A#||-----------------------------------------------------|
F#||-----------------------------------------------------|
C#||-----------------------------------------------------| x2
G#||--------5----------5-5-5-4\----6-5-----6--5----------|
C#||--0-5-8----8-7-5-0-----------------8-5-------8-5--4--|



Guitar 1:
D#||----------------------------------|
A#||-----------------11~---11~---13~--|
F#||-----------------x-----x-----x----|
C#||-----------------8~----8~----10~--|
G#||--------5-------------------------|
C#||--0-5-8----8-5-0------------------|


Guitar 2:
D#||--------------------------------|
A#||--------------------------------|
F#||--------------------------------|
C#||---------------------5---5---7--|
G#||---------------------5---5---7--|
C#||---------------------5---5---7--|



Chorus/Outro
Guitar 1:
D#||--------------------------------------------------|
A#||--------------------------------------------------|
F#||--7---7---7-7---10---12-14---14---14-14---12---10-|
C#||--x---x---x-x---x----x--x----x----x--x----x----x--|
G#||--5---5---5-5---8----10-12---12---12-12---10---8--|
C#||--------------------------------------------------|


D#||------------------------------------------------------|
A#||------------------------------------------------------|
F#||--15---15---15-15---14---12-14---12---10-12---10---8--|
C#||--x----x----x--x----x----x--x----x----x--x----x----x--| x3
G#||--13---13---13-13---12---10-12---10---8--10---8----6--|
C#||------------------------------------------------------|


D#||-------------------------------------|
A#||-------------------------------------|
F#||--7---7---7-7---8---10-5~------------|
C#||--x---x---x-x---x---x--x----3~---5~--|
G#||--5---5---5-5---6---8--3~---3~---5~--|
C#||----------------------------3~---5~--|


Guitar 2 (Dub):
D#||-------------------------------------------------------|
A#||--15---15---15-15---15---15-13---13---13-10---10---10--|
F#||--x----x----x--x----x----x--x----x----x--x----x----x---|
C#||--12---12---12-12---12---12-10---10---10-7----7----7---|
G#||-------------------------------------------------------|
C#||-------------------------------------------------------|


D#||-----------------------------------------------------|
A#||--11---11---11-11---11---11-11---11---11-10---8---6--|
F#||--x----x----x--x----x----x--x----x----x--x----x---x--|
C#||--8----8----8--8----8----8--8----8----8--7----5---3--|
G#||-----------------------------------------------------|
C#||-----------------------------------------------------|


D#||-------------------------------------------------------|
A#||--15---15---15-15---15---15-13---13---13-10---10---10--|
F#||--x----x----x--x----x----x--x----x----x--x----x----x---|
C#||--12---12---12-12---12---12-10---10---10-7----7----7---|
G#||-------------------------------------------------------|
C#||-------------------------------------------------------|


D#||-------------------------------------------------------|
A#||--11---11---11-11---11---11-11---11---11-18---15---15--|
F#||--x----x----x--x----x----x--x----x----x--x----x----x---|
C#||--8----8----8--8----8----8--8----8----8--15---12---12--|
G#||-------------------------------------------------------|
C#||-------------------------------------------------------|


D#||-------------------------------------------------------|
A#||--15---15---15-15---15---15-13---13---13-10---10---10--|
F#||--x----x----x--x----x----x--x----x----x--x----x----x---|
C#||--12---12---12-12---12---12-10---10---10-7----7----7---|
G#||-------------------------------------------------------|
C#||-------------------------------------------------------|


D#||-----------------------------------------------------|
A#||--11---11---11-11---11---11-11---11---11-10---8---6--|
F#||--x----x----x--x----x----x--x----x----x--x----x---x--|
C#||--8----8----8--8----8----8--8----8----8--7----5---3--|
G#||-----------------------------------------------------|
C#||-----------------------------------------------------|


D#||-------------------------------------------|
A#||--15---15---15-15---16---18-13~---10~------|
F#||--x----x----x--x----x----x--x-----x--------|
C#||--12---12---12-12---13---15-10~---7~---7~--|
G#||---------------------------------------8~--|
C#||---------------------------------------7~--|


Guitar 2:
D#||-----------------------------------------------------------------------------------|
A#||-----------------------------------------------------------------------------------|
F#||------------------------------------------------------------------------8---8---7--|
C#||--8---8---8-8---8---8-7---7---7-3---3---3-5---5---5-5---5---5-5---5---5-8---8---7--| x3
G#||--8---8---8-8---8---8-7---7---7-3---3---3-5---5---5-5---5---5-5---5---5-6---6---5--|
C#||--8---8---8-8---8---8-7---7---7-3---3---3-5---5---5-5---5---5-5---5---5------------|


D#||--------------------------------------|
A#||--------------------------------------|
F#||--------------------------------------|
C#||--8---8---8-8---10---12-7~---3~---5~--|
G#||--8---8---8-8---10---12-7~---3~---5~--|
C#||--8---8---8-8---10---12-7~---3~---5~--|





____________________________________________________________________________________________________

                                      T03.   FACE OF THE EARTH
____________________________________________________________________________________________________





Tuning: Drop C# (C# G# C# F# A# D#)


Intro
Guitar 1:
D#||---------------------------------------------------------------------------------|
A#||---------------------------------------------------------------------------------|
F#||---------------------------------------------------------------------------------|
C#||---------------------------------------------------------------------------------|
G#||--7-7-7-7-10-10-10-10-------10--10--10-------------10-10-10-10-------10--10--10--|
C#||----------------------9-9-9------------10-10-10-10-------------7-7-7-------------|


D#||------------------------------------------------------------------------------|
A#||------------------------------------------------------------------------------|
F#||------------------------------------------------------------------------------|
C#||------------------------------------------------------------------7--7--7--7--| x2
G#||--7-7-7-7-10-10-10-10-------10--10--10-------------10-10-10-10-10-7--7--7--7--|
C#||----------------------9-9-9------------10-10-10-10----------------7--7--7--7--|


Guitar 2:
D#||---------------------------------------------------------------------|
A#||--121212121212121212121212121212121212121212121212-1010101010101010--|
F#||---------------------------------------------------------------------|
C#||---------------------------------------------------------------------| x2
G#||---------------------------------------------------------------------|
C#||---------------------------------------------------------------------|


D#||------|
A#||------|
F#||--8~--|
C#||------|
G#||------|
C#||------|



Verse
Guitar 1/2:
D#||---------------------|----------------------|
A#||---------------------|----------------------|
F#||--9-----4-----5---\--|-x-9-----4-----5---\--|
C#||--9-----4-----5---\--|-x-9-----4-----5---\--|
G#||--7-----2-----3---\--|-x-7-----2-----3---\--|
C#||---------------------|----------------------|


D#||---------------------|-------------------------------------|
A#||---------------------|-------------------------------------|
F#||--9-----4-----5---\--|--7-----7-----5~----5~-----5~-----5--|
C#||--9-----4-----5---\--|--7-----7-----5~----5~-----5~-----5--|
G#||--7-----2-----3---\--|--5-----5-----3~----3~-----3~-----3--|
C#||---------------------|-------------------------------------|



Pre-Chorus
Guitar 1/2:
D#||-----------------------------------------------------|
A#||-----------------------------------------------------|
F#||--9-----4-----5--------------------------------------|
C#||--9-----4-----5---5--55---5---5--55---5---5--55---5--|
G#||--7-----2-----3---3--33---3---3--33---3---3--33---3--|
C#||-----------------------------------------------------|
                      .  ..   .   .  ..   .   .  ..   .

Guitar 1:
D#||---------------------------------------------------|
A#||---------------------------------------------------|
F#||--9-----4-----5------------------------------------|
C#||--9-----4-----5------------------------------------|
G#||--7-----2-----3---7--77---7\--7--77---7\--7--77xx--|
C#||-----------------------------------------------xx--|
                      .  ..   .   .  ..   .   .  ..

Guitar 2:
D#||---------------------------------------------------|
A#||---------------------------------------------------|
F#||--9-----4-----5------------------------------------|
C#||--9-----4-----5---5--55---5\--5--55---5\--5--55----|
G#||--7-----2-----3---3--33---3\--3--33---3\--3--33xx--|
C#||-----------------------------------------------xx--|
                      .  ..   .   .  ..   .   .  ..

Guitar 1/2:
D#||-----------------------------------------------------|
A#||-----------------------------------------------------|
F#||--9-----4-----5--------------------------------------|
C#||--9-----4-----5---5--55---5---5--55---5---5--55---5--|
G#||--7-----2-----3---3--33---3---3--33---3---3--33---3--|
C#||-----------------------------------------------------|
                      .  ..   .   .  ..   .   .  ..   .

Guitar 1:
D#||---------------------------------------------------------|
A#||---------------------------------------------------------|
F#||--12----11----12~----14-16~----19----19------------------|
C#||--x-----x-----x------x--x------X-----X--x-x-x-x-x-x-x-x--|
G#||--10----9-----10~----12-14~----17----17-x-x-x-x-x-x-x-x--|
C#||----------------------------------------x-x-x-x-x-x-x-x--|


Guitar 2:
D#||---------------------------------------------------------|
A#||---------------------------------------------------------|
F#||--7-----7-----5------------------------------------------|
C#||--7-----7-----5---5--55---5---5--55---5-x-x-x-x-x-x-x-x--|
G#||--5-----5-----3---3--33---3---3--33---3-x-x-x-x-x-x-x-x--|
C#||----------------------------------------x-x-x-x-x-x-x-x--|
                      .  ..   .   .  ..   .



Chorus
Guitar 1:
D#||------------------------------------------------------------------------------------------------|
A#||------------------------------------------------------------------------------------------------|
F#||--16-16-16-16-16-16-16-16---14-14-14-17-17-17-17---16-16-16-16-16-16-16---11-11-11-12-12-12-12--|
C#||--x--x--x--x--x--x--x--x----x--x--x--x--x--x--x----x--x--x--x--x--x--x----x--x--x--x--x--x--x---|
G#||--14-14-14-14-14-14-14-14---12-12-12-15-15-15-15---14-14-14-14-14-14-14---9--9--9--10-10-10-10--|
C#||------------------------------------------------------------------------------------------------|


D#||---------------------------------------------------------------------------------------------|
A#||---------------------------------------------------------------------------------------------|
F#||--16-16-16-16-16-16-16---14-14-14-17-17-17-17---21-21-21-21-21-21-21---19-19-19-19-19-19-19--|
C#||--x--x--x--x--x--x--x----x--x--x--x--x--x--x----x--x--x--x--x--x--x----x--x--x--x--x--x--x---| x2
G#||--14-14-14-14-14-14-14---12-12-12-15-15-15-15---19-19-19-19-19-19-19---17-17-17-17-17-17-17--|
C#||---------------------------------------------------------------------------------------------|


Guitar 2:
D#||----------------------------------------------------------------------------|
A#||----------------------------------------------------------------------------|
F#||--9-9-9-9-9-9-9-9---12-12-12-12-12-12-12---------------------9-9-9-9-9-7-7--|
C#||--9-9-9-9-9-9-9-9---12-12-12-12-12-12-12---7-7-7-7-7-7-7-7---9-9-9-9-9-7-7--|
G#||--7-7-7-7-7-7-7-7---10-10-10-10-10-10-10---7-7-7-7-7-7-7-7---7-7-7-7-7-5-5--|
C#||-------------------------------------------7-7-7-7-7-7-7-7------------------|


D#||-----------------------------------------------------------------|
A#||-----------------------------------------------------------------|
F#||--------------------------------------------------9-9-9-9-9-7-7--|
C#||--2-2-2-2-2-2-2---5-5-5-5-5-5-5---7-7-7-7-7-7-7---9-9-9-9-9-7-7--| x2
G#||--2-2-2-2-2-2-2---5-5-5-5-5-5-5---7-7-7-7-7-7-7---7-7-7-7-7-5-5--|
C#||--2-2-2-2-2-2-2---5-5-5-5-5-5-5---7-7-7-7-7-7-7------------------|


Guitar 3 (Dub):
D#||---------------------------------------------------------------------------------|
A#||--8-8-8-8-8-8-8-8---12-12-12-12-12-12-12---13-13-13-13-13-13-13---8-8-8-8-8-7-7--|
F#||--x-x-x-x-x-x-x-x---x--x--x--x--x--x--x----x--x--x--x--x--x--x----x-x-x-x-x-x-x--|
C#||--x-x-x-x-x-x-x-x---x--x--x--x--x--x--x----x--x--x--x--x--x--x----x-x-x-x-x-x-x--|
G#||--7-7-7-7-7-7-7-7---10-10-10-10-10-10-10---12-12-12-12-12-12-12---7-7-7-7-7-5-5--|
C#||---------------------------------------------------------------------------------|


D#||-------------------------------------------------------------------------------|
A#||--8-8-8-8-8-8-8---12-12-12-12-12-12-12---13-13-13-13-13-13-13---8-8-8-8-8-7-7--|
F#||--x-x-x-x-x-x-x---x--x--x--x--x--x--x----x--x--x--x--x--x--x----x-x-x-x-x-x-x--|
C#||--x-x-x-x-x-x-x---x--x--x--x--x--x--x----x--x--x--x--x--x--x----x-x-x-x-x-x-x--| x2
G#||--7-7-7-7-7-7-7---10-10-10-10-10-10-10---12-12-12-12-12-12-12---7-7-7-7-7-5-5--|
C#||-------------------------------------------------------------------------------|



Pre-Verse
Guitar 1:
D#||---------------------------------------------------------------------------------|
A#||---------------------------------------------------------------------------------|
F#||---------------------------------------------------------------------------------|
C#||---------------------------------------------------------------------------------|
G#||--7-7-7-7-10-10-10-10-------10--10--10-------------10-10-10-10-------10--10--10--|
C#||----------------------9-9-9------------10-10-10-10-------------7-7-7-------------|


D#||------------------------------------------------------------------------------|
A#||------------------------------------------------------------------------------|
F#||------------------------------------------------------------------------------|
C#||------------------------------------------------------------------7--7--7--7--|
G#||--7-7-7-7-10-10-10-10-------10--10--10-------------10-10-10-10-10-7--7--7--7--|
C#||----------------------9-9-9------------10-10-10-10----------------7--7--7--7--|


Guitar 2:
D#||---------------------------------------------------------------------|
A#||--121212121212121212121212121212121212121212121212-1010101010101010--|
F#||---------------------------------------------------------------------|
C#||---------------------------------------------------------------------|  x2
G#||---------------------------------------------------------------------|
C#||---------------------------------------------------------------------|


D#||------|
A#||------|
F#||--8~--|
C#||------|
G#||------|
C#||------|



Verse
Guitar 1/2:
D#||---------------------|----------------------|
A#||---------------------|----------------------|
F#||--9-----4-----5---\--|-x-9-----4-----5---\--|
C#||--9-----4-----5---\--|-x-9-----4-----5---\--|
G#||--7-----2-----3---\--|-x-7-----2-----3---\--|
C#||---------------------|----------------------|


Guitar 1:
D#||----------------------------------------------------------|
A#||----------------------------------------------------------|
F#||--9----7----9/12-----12~-----12~-----12~-----12~-----12~--|
C#||--x----x----x/x------x-------x-------x-------x-------x----|
G#||--7----5----7/10~----10~-----10~-----10~-----10~-----10~--|
C#||----------------------------------------------------------|


D#||----------------------------------------------------------|
A#||----------------------------------------------------------|
F#||--12----11----12~----14-16~----19----19-------------------|
C#||--x-----x-----x------x--x------X-----X---x-x-x-x-9-7-5-7--|
G#||--10----9-----10~----12-14~----17----17--x-x-x-x----------|
C#||-----------------------------------------x-x-x-x----------|


Guitar 2:
D#||---------------------|-------------------------------------------------|
A#||---------------------|-------------------------------------------------|
F#||--9-----4-----5---\--|--7-----7-----5~----5~-----5~--------------------|
C#||--9-----4-----5---\--|--7-----7-----5~----5~-----5~---x-x-x-x-x-x-x-x--|
G#||--7-----2-----3---\--|--5-----5-----3~----3~-----3~---x-x-x-x-x-x-x-x--|
C#||---------------------|--------------------------------x-x-x-x-x-x-x-x--|



Chorus
Guitar 1:
D#||------------------------------------------------------------------------------------------------|
A#||------------------------------------------------------------------------------------------------|
F#||--16-16-16-16-16-16-16-16---14-14-14-17-17-17-17---16-16-16-16-16-16-16---11-11-11-12-12-12-12--|
C#||--x--x--x--x--x--x--x--x----x--x--x--x--x--x--x----x--x--x--x--x--x--x----x--x--x--x--x--x--x---|
G#||--14-14-14-14-14-14-14-14---12-12-12-15-15-15-15---14-14-14-14-14-14-14---9--9--9--10-10-10-10--|
C#||------------------------------------------------------------------------------------------------|


D#||---------------------------------------------------------------------------------------------|
A#||---------------------------------------------------------------------------------------------|
F#||--16-16-16-16-16-16-16---14-14-14-17-17-17-17---21-21-21-21-21-21-21---19-19-19-19-19-19-19--|
C#||--x--x--x--x--x--x--x----x--x--x--x--x--x--x----x--x--x--x--x--x--x----x--x--x--x--x--x--x---| x2
G#||--14-14-14-14-14-14-14---12-12-12-15-15-15-15---19-19-19-19-19-19-19---17-17-17-17-17-17-17--|
C#||---------------------------------------------------------------------------------------------|


Guitar 2:
D#||----------------------------------------------------------------------------|
A#||----------------------------------------------------------------------------|
F#||--9-9-9-9-9-9-9-9---12-12-12-12-12-12-12---------------------9-9-9-9-9-7-7--|
C#||--9-9-9-9-9-9-9-9---12-12-12-12-12-12-12---7-7-7-7-7-7-7-7---9-9-9-9-9-7-7--|
G#||--7-7-7-7-7-7-7-7---10-10-10-10-10-10-10---7-7-7-7-7-7-7-7---7-7-7-7-7-5-5--|
C#||-------------------------------------------7-7-7-7-7-7-7-7------------------|


D#||-----------------------------------------------------------------|
A#||-----------------------------------------------------------------|
F#||--------------------------------------------------9-9-9-9-9-7-7--|
C#||--2-2-2-2-2-2-2---5-5-5-5-5-5-5---7-7-7-7-7-7-7---9-9-9-9-9-7-7--| x2
G#||--2-2-2-2-2-2-2---5-5-5-5-5-5-5---7-7-7-7-7-7-7---7-7-7-7-7-5-5--|
C#||--2-2-2-2-2-2-2---5-5-5-5-5-5-5---7-7-7-7-7-7-7------------------|


Guitar 3 (Dub):
D#||---------------------------------------------------------------------------------|
A#||--8-8-8-8-8-8-8-8---12-12-12-12-12-12-12---13-13-13-13-13-13-13---8-8-8-8-8-7-7--|
F#||--x-x-x-x-x-x-x-x---x--x--x--x--x--x--x----x--x--x--x--x--x--x----x-x-x-x-x-x-x--|
C#||--x-x-x-x-x-x-x-x---x--x--x--x--x--x--x----x--x--x--x--x--x--x----x-x-x-x-x-x-x--|
G#||--7-7-7-7-7-7-7-7---10-10-10-10-10-10-10---12-12-12-12-12-12-12---7-7-7-7-7-5-5--|
C#||---------------------------------------------------------------------------------|


D#||-------------------------------------------------------------------------------|
A#||--8-8-8-8-8-8-8---12-12-12-12-12-12-12---13-13-13-13-13-13-13---8-8-8-8-8-7-7--|
F#||--x-x-x-x-x-x-x---x--x--x--x--x--x--x----x--x--x--x--x--x--x----x-x-x-x-x-x-x--|
C#||--x-x-x-x-x-x-x---x--x--x--x--x--x--x----x--x--x--x--x--x--x----x-x-x-x-x-x-x--| x2
G#||--7-7-7-7-7-7-7---10-10-10-10-10-10-10---12-12-12-12-12-12-12---7-7-7-7-7-5-5--|
C#||-------------------------------------------------------------------------------|



Bridge
Guitar 1:
D#||-------------------------------------------------------------------|
A#||-------------------------------------------------------------------|
F#||-------------------------------------------------------------------|
C#||-------------------------------------------------------------------|
G#||--7-7-7-7-7-7-7-7-7-7-7-7-7-7-7-7-7-7-7-7-7-7-7-7-7-7-7-7-7-7-7-7--|
C#||-------------------------------------------------------------------|
      . . . . . . . . . . . . . . . . . . . . . . . . . . . . . . . .


D#||-------------------------------------------------------------|
A#||-------------------------------------------------------------|
F#||-------------------------------------------------------------|
C#||-------------------------------------------------------------|
G#||--7-7-7-7-7-7-7-7-7-7-7-7-7-7-7-7-7-7-7-7-7-7-7-7-7-7-7-7-7--|
C#||-------------------------------------------------------------|
      . . . . . . . . . . . . . . . . . . . . . . . . . . . . .



Guitar 1:
D#||-----------------------------------------------------------------------------------|
A#||-----------------------------------------------------------------------------------|
F#||-----------------------------------------------------------------------------------|
C#||-----------------------------------------------------------------------------------|
G#||--7-7-7-7-7-7-7-7-7-7-7-7-9-9-9-9-10-10-10-10-10-10-10-10--------------------------|
C#||----------------------------------------------------------10-10-10-10-10-10-10-10--|
      . . . . . . . . . . . . . . . . .  .  .  .  .  .  .  .  .  .  .  .  .  .  .  .


D#||-------------------------------------------------------------------|
A#||-------------------------------------------------------------------|
F#||-------------------------------------------------------------------|
C#||-------------------------------------------------------------------|
G#||-------------------------------------------------------------------|
C#||--9-9-9-9-9-9-9-9-9-9-9-9-9-9-9-9-9-9-9-9-9-9-9-9-9-9-9-9-9-9-9-9--|
      . . . . . . . . . . . . . . . . . . . . . . . . . . . . . . . .


D#||-------------------------------------------------------------------------------------------|
A#||-------------------------------------------------------------------------------------------|
F#||-------------------------------------------------------------------------------------------|
C#||-------------------------------------------------------------------------------------------|
G#||--10-10-10-10-10-10-10-10-10-10-10-10-10-10-10-10-10-10-10-10-9-9-9-9-10-10-10-10-9-9-9-9--|
C#||-------------------------------------------------------------------------------------------|
      .  .  .  .  .  .  .  .  .  .  .  .  .  .  .  .  .  .  .  .  . . . . .  .  .  .  . . . .


D#||---------------------------------------------------------------------------------------------------|
A#||---------------------------------------------------------------------------------------------------|
F#||---------------------------------------------------------------------------------------------------|
C#||---------------------------------------------------------------------------------------------------|
G#||--10-10-10-10-10-10-10-10-10-10-10-10-10-10-10-10-10-10-10-10-10-10-10-10-10-10-10-10-10-10-10-10--|
C#||---------------------------------------------------------------------------------------------------|
      .  .  .  .  .  .  .  .  .  .  .  .  .  .  .  .  .  .  .  .  .  .  .  .  .  .  .  .  .  .  .  .


Guitar 2:
D#||-------------------------------------------------------------------|
A#||-------------------------------------------------------------------|
F#||--5-5-5-5-5-5-5-5-5-5-5-5-4-4-4-4-2-2-2-2-2-2-2-2------------------|
C#||-------------------------------------------------------------------|
G#||-------------------------------------------------------------------|
C#||--------------------------------------------------5-5-5-5-5-5-5-5--|
      . . . . . . . . . . . . . . . . . . . . . . . . . . . . . . . .


D#||-------------------------------------------------------------------|
A#||-------------------------------------------------------------------|
F#||-------------------------------------------------------------------|
C#||-------------------------------------------------------------------|
G#||-------------------------------------------------------------------|
C#||--2-2-2-2-2-2-2-2-2-2-2-2-2-2-2-2-2-2-2-2-2-2-2-2-2-2-2-2-2-2-2-2--|
      . . . . . . . . . . . . . . . . . . . . . . . . . . . . . . . .


D#||-------------------------------------------------------------------|
A#||-------------------------------------------------------------------|
F#||-------------------------------------------------------------------|
C#||--2-2-2-2-2-2-2-2-2-2-2-2-2-2-2-2-2-2-2-2-2-2-2-2-2-2-2-2-0-0-0-0--|
G#||-------------------------------------------------------------------|
C#||-------------------------------------------------------------------|
      . . . . . . . . . . . . . . . . . . . . . . . . . . . . . . . .


D#||-------------------------------------------------------------------|
A#||-------------------------------------------------------------------|
F#||-------------------------------------------------------------------|
C#||--2-2-2-2-2-2-2-2-2-2-2-2-2-2-2-2-2-2-2-2-2-2-2-2-2-2-2-2-2-2-2-2--|
G#||-------------------------------------------------------------------|
C#||-------------------------------------------------------------------|
      . . . . . . . . . . . . . . . . . . . . . . . . . . . . . . . .



Guitar 1:
D#||-----------------------------------------------------------------------------------|
A#||-----------------------------------------------------------------------------------|
F#||-----------------------------------------------------------------------------------|
C#||-----------------------------------------------------------------------------------|
G#||--7-7-7-7-7-7-7-7-7-7-7-7-9-9-9-9-10-10-10-10-10-10-10-10--------------------------|
C#||----------------------------------------------------------10-10-10-10-10-10-10-10--|
      . . . . . . . . . . . . . . . . .  .  .  .  .  .  .  .  .  .  .  .  .  .  .  .


Guitar 2:
D#||-------------------------------------------------------------------|
A#||-------------------------------------------------------------------|
F#||--5-5-5-5-5-5-5-5-5-5-5-5-4-4-4-4-2-2-2-2-2-2-2-2------------------|
C#||-------------------------------------------------------------------|
G#||-------------------------------------------------------------------|
C#||--------------------------------------------------5-5-5-5-5-5-5-5--|
      . . . . . . . . . . . . . . . . . . . . . . . . . . . . . . . .


Guitar 1/2:
D#||------------------------------|
A#||------------------------------|
F#||------------------------------|
C#||--2-2-2-2-2-2-2-2-2-2-2-2-xx--|
G#||--2-2-2-2-2-2-2-2-2-2-2-2-xx--|
C#||--2-2-2-2-2-2-2-2-2-2-2-2-xx--|
      . . . .



Interlude
Guitar 1:
D#||---------------------------------------------------------------------------------|
A#||--8-8-8-8-8-8-8-8---12-12-12-12-12-12-12---13-13-13-13-13-13-13---8-8-8-8-8-7-7--|
F#||--x-x-x-x-x-x-x-x---x--x--x--x--x--x--x----x--x--x--x--x--x--x----x-x-x-x-x-x-x--|
C#||--x-x-x-x-x-x-x-x---x--x--x--x--x--x--x----x--x--x--x--x--x--x----x-x-x-x-x-x-x--|
G#||--7-7-7-7-7-7-7-7---10-10-10-10-10-10-10---12-12-12-12-12-12-12---7-7-7-7-7-5-5--|
C#||---------------------------------------------------------------------------------|


D#||-------------------------------------------------------------------------------|
A#||--8-8-8-8-8-8-8---12-12-12-12-12-12-12---13-13-13-13-13-13-13---8-8-8-8-8-7-7--|
F#||--x-x-x-x-x-x-x---x--x--x--x--x--x--x----x--x--x--x--x--x--x----x-x-x-x-x-x-x--|
C#||--x-x-x-x-x-x-x---x--x--x--x--x--x--x----x--x--x--x--x--x--x----x-x-x-x-x-x-x--|
G#||--7-7-7-7-7-7-7---10-10-10-10-10-10-10---12-12-12-12-12-12-12---7-7-7-7-7-5-5--|
C#||-------------------------------------------------------------------------------|



Chorus
Guitar 1:
D#||------------------------------------------------------------------------------------------------|
A#||------------------------------------------------------------------------------------------------|
F#||--16-16-16-16-16-16-16-16---14-14-14-17-17-17-17---16-16-16-16-16-16-16---11-11-11-12-12-12-12--|
C#||--x--x--x--x--x--x--x--x----x--x--x--x--x--x--x----x--x--x--x--x--x--x----x--x--x--x--x--x--x---|
G#||--14-14-14-14-14-14-14-14---12-12-12-15-15-15-15---14-14-14-14-14-14-14---9--9--9--10-10-10-10--|
C#||------------------------------------------------------------------------------------------------|


D#||---------------------------------------------------------------------------------------------|
A#||---------------------------------------------------------------------------------------------|
F#||--16-16-16-16-16-16-16---14-14-14-17-17-17-17---21-21-21-21-21-21-21---19-19-19-19-19-19-19--|
C#||--x--x--x--x--x--x--x----x--x--x--x--x--x--x----x--x--x--x--x--x--x----x--x--x--x--x--x--x---| x2
G#||--14-14-14-14-14-14-14---12-12-12-15-15-15-15---19-19-19-19-19-19-19---17-17-17-17-17-17-17--|
C#||---------------------------------------------------------------------------------------------|


Guitar 2:
D#||----------------------------------------------------------------------------|
A#||----------------------------------------------------------------------------|
F#||--9-9-9-9-9-9-9-9---12-12-12-12-12-12-12---------------------9-9-9-9-9-7-7--|
C#||--9-9-9-9-9-9-9-9---12-12-12-12-12-12-12---7-7-7-7-7-7-7-7---9-9-9-9-9-7-7--|
G#||--7-7-7-7-7-7-7-7---10-10-10-10-10-10-10---7-7-7-7-7-7-7-7---7-7-7-7-7-5-5--|
C#||-------------------------------------------7-7-7-7-7-7-7-7------------------|


D#||-----------------------------------------------------------------|
A#||-----------------------------------------------------------------|
F#||--------------------------------------------------9-9-9-9-9-7-7--|
C#||--2-2-2-2-2-2-2---5-5-5-5-5-5-5---7-7-7-7-7-7-7---9-9-9-9-9-7-7--| x2
G#||--2-2-2-2-2-2-2---5-5-5-5-5-5-5---7-7-7-7-7-7-7---7-7-7-7-7-5-5--|
C#||--2-2-2-2-2-2-2---5-5-5-5-5-5-5---7-7-7-7-7-7-7------------------|


Guitar 3 (Dub):
D#||---------------------------------------------------------------------------------|
A#||--8-8-8-8-8-8-8-8---12-12-12-12-12-12-12---13-13-13-13-13-13-13---8-8-8-8-8-7-7--|
F#||--x-x-x-x-x-x-x-x---x--x--x--x--x--x--x----x--x--x--x--x--x--x----x-x-x-x-x-x-x--|
C#||--x-x-x-x-x-x-x-x---x--x--x--x--x--x--x----x--x--x--x--x--x--x----x-x-x-x-x-x-x--|
G#||--7-7-7-7-7-7-7-7---10-10-10-10-10-10-10---12-12-12-12-12-12-12---7-7-7-7-7-5-5--|
C#||---------------------------------------------------------------------------------|


D#||-------------------------------------------------------------------------------|
A#||--8-8-8-8-8-8-8---12-12-12-12-12-12-12---13-13-13-13-13-13-13---8-8-8-8-8-7-7--|
F#||--x-x-x-x-x-x-x---x--x--x--x--x--x--x----x--x--x--x--x--x--x----x-x-x-x-x-x-x--|
C#||--x-x-x-x-x-x-x---x--x--x--x--x--x--x----x--x--x--x--x--x--x----x-x-x-x-x-x-x--| x2
G#||--7-7-7-7-7-7-7---10-10-10-10-10-10-10---12-12-12-12-12-12-12---7-7-7-7-7-5-5--|
C#||-------------------------------------------------------------------------------|



Outro
Guitar 1:
D#||-------------------------------------------------------------------------------------------|
A#||-------------------------------------------------------------------------------------------|
F#||--16-16-16-16-16-16-16-16---14---17-17-17-17-17-16-16-16-16-16-16/24-24-24-24-24-24-23-23--|
C#||--x--x--x--x--x--x--x--x----x----x--x--x--x--x--x--x--x--x--x--x-/x--x--x--x--x--x--x--x---|
G#||--14-14-14-14-14-14-14-14---12---15-15-15-15-15-14-14-14-14-14-14/22-22-22-22-22-22-21-21--|
C#||-------------------------------------------------------------------------------------------|


D#||-------------------------------------------------------------------------------------------|
A#||-------------------------------------------------------------------------------------------|
F#||--16-16-16-16-16-16--14--17-17-17-17-17-17-17-17---21-21-21-21-21-21-21-21---21---21---19--|
C#||--x--x--x--x--x--x---x---x--x--x--x--x--x--x--x----x--x--x--x--x--x--x--x----x----x----x---| x2
G#||--14-14-14-14-14-14--12--15-15-15-15-15-15-15-15---19-19-19-19-19-19-19-19---19---19---17--|
C#||-------------------------------------------------------------------------------------------|


Guitar 2:
D#||---------------------------------|---------------------------------|
A#||---------------------------------|---------------------------------|
F#||--9---------------------9--9--7--|--9---------------------9--9--7--|
C#||--9------2--5-----7-----9--9--7--|--9-----5-5-----7-7-----9--9--7--| x2
G#||--7------2--5-----7-----7--7--5--|--7-----5-5-----7-7-----7--7--5--|
C#||---------2--5-----7--------------|--------5-5-----7-7--------------|


Guitar 3 (Dub):
D#||---------------------------------------------------------------------------------|
A#||--8-8-8-8-8-8-8-8---12-12-12-12-12-12-12---13-13-13-13-13-13-13---8-8-8-8-8-7-7--|
F#||--x-x-x-x-x-x-x-x---x--x--x--x--x--x--x----x--x--x--x--x--x--x----x-x-x-x-x-x-x--|
C#||--x-x-x-x-x-x-x-x---x--x--x--x--x--x--x----x--x--x--x--x--x--x----x-x-x-x-x-x-x--|
G#||--7-7-7-7-7-7-7-7---10-10-10-10-10-10-10---12-12-12-12-12-12-12---7-7-7-7-7-5-5--|
C#||---------------------------------------------------------------------------------|


D#||-------------------------------------------------------------------------------|
A#||--8-8-8-8-8-8-8---12-12-12-12-12-12-12---13-13-13-13-13-13-13---8-8-8-8-8-7-7--|
F#||--x-x-x-x-x-x-x---x--x--x--x--x--x--x----x--x--x--x--x--x--x----x-x-x-x-x-x-x--|
C#||--x-x-x-x-x-x-x---x--x--x--x--x--x--x----x--x--x--x--x--x--x----x-x-x-x-x-x-x--| x2
G#||--7-7-7-7-7-7-7---10-10-10-10-10-10-10---12-12-12-12-12-12-12---7-7-7-7-7-5-5--|
C#||-------------------------------------------------------------------------------|


Guitar 1/2:
D#||---------------------|
A#||---------------------|
F#||--9-----4-----5---\--|
C#||--9-----4-----5---\--|
G#||--7-----2-----3---\--|
C#||---------------------|






____________________________________________________________________________________________________

                                  T04.   HEAVEN, HELL AND PURGATORY
____________________________________________________________________________________________________





Tuning: Drop C# (C# G# C# F# A# D#)


Intro
Guitar 1/2:
D#||---------------------------------------------------|
A#||---------------------------------------------------|
F#||---------------------------------------------------|
C#||--0-0-0-0-0-0-0-0-0-0-0-0-0-0-0-0-0-0-0-0-0-0-0-0--|
G#||--0-0-0-0-0-0-0-0-0-0-0-0-0-0-0-0-0-0-0-0-0-0-0-0--|
C#||--0-0-0-0-0-0-0-0-0-0-0-0-0-0-0-0-0-0-0-0-0-0-0-0--|
      . . . . . . . . . . . . . . . . . . . . . . . .

D#||--------------|
A#||--------------|
F#||--------------|
C#||--(feedback)--|
G#||--------------|
C#||--------------|



Verse
Guitar 1/2:
D#||----------------------------|
A#||----------------------------|
F#||----------------------------|
C#||--0-3-5-7-8-10-0-0-0-0-0-0--| x7
G#||--0-3-5-7-8-10-0-0-0-0-0-0--|
C#||--0-3-5-7-8-10-0-0-0-0-0-0--|
                   . . . . . .


D#||----------------|
A#||----------------|
F#||----------------|
C#||--0-3-5-7-8-10--|
G#||--0-3-5-7-8-10--|
C#||--0-3-5-7-8-10--|


Guitar 1:
D#||-----------------------------|
A#||-----------10-------------6--|
F#||-----------7--------------3--|
C#||--8--8--xx-8-----5--5--xx-5--|
G#||--8--8--xx-------5--5--xx----|
C#||--8--8--xx-------5--5--xx----|



Chorus
Guitar 1/2:
D#||---------------------------------------------------------|
A#||-----------6-------------6-------------10-------------6--|
F#||-----------7-------------7-------------7--------------3--|
C#||--0--0--xx-x----0--0--xx-x----8--8--xx-8-----5--5--xx-5--|
G#||--0--0--xx-8----0--0--xx-8----8--8--xx-------5--5--xx----|
C#||--0--0--xx------0--0--xx------8--8--xx-------5--5--xx----|


D#||-------------------------------|
A#||-----------6-------------------|
F#||-----------7-------------------|
C#||--0--0--xx-x----0--0--xx--3-7--|
G#||--0--0--xx-8----0--0--xx--3-7--|
C#||--0--0--xx------0--0--xx--3-7--|


Guitar 1:
D#||--------------------------------|--------------------------------|
A#||--/10-11-10---------------------|--------------------------------|
F#||------------12-10\7/10---12--\--|--10--10-----9----10--10-----9--|
C#||--------------------------------|--x---x---xx-x----x---x---xx-x--|
G#||--------------------------------|--8---8---xx-7----8---8---xx-7--|
C#||--------------------------------|----------xx--------------xx----|


D#||--------------------------------|--------------------------------|
A#||--/10-11-10---------------------|--------------------------------|
F#||------------12-10\7/10---12--\--|--14--14--14--14--14--14--14-\--|
C#||--------------------------------|--x---x---x---x---x---x---x--\--|
G#||--------------------------------|--12--12--12--12--12--12--12-\--|
C#||--------------------------------|--------------------------------|


Guitar 2:
D#||-----------------------------|
A#||-----------10-------------6--|
F#||-----------7--------------3--|
C#||--8--8--xx-8-----5--5--xx-5--|
G#||--8--8--xx-------5--5--xx----|
C#||--8--8--xx-------5--5--xx----|


D#||---------------------------------------------------------|
A#||-----------6-------------6-------------10-------------6--|
F#||-----------7-------------7-------------7--------------3--|
C#||--0--0--xx-x----0--0--xx-x----8--8--xx-8-----5--5--xx-5--|
G#||--0--0--xx-8----0--0--xx-8----8--8--xx-------5--5--xx----|
C#||--0--0--xx------0--0--xx------8--8--xx-------5--5--xx----|


D#||-----------------------|
A#||-----------------------|
F#||-----------------------|
C#||--0--0--0--0--0--0--0--|
G#||--0--0--0--0--0--0--0--|
C#||--0--0--0--0--0--0--0--|



Verse
Guitar 1/2:
D#||----------------------------|
A#||----------------------------|
F#||----------------------------|
C#||--0-3-5-7-8-10-0-0-0-0-0-0--| x4
G#||--0-3-5-7-8-10-0-0-0-0-0-0--|
C#||--0-3-5-7-8-10-0-0-0-0-0-0--|
                   . . . . . .

Guitar 1/2:
D#||----------------|
A#||----------------|
F#||----------------|
C#||--0-3-5-7-8-10--|
G#||--0-3-5-7-8-10--|
C#||--0-3-5-7-8-10--|


Guitar 1:
D#||--------------|
A#||--------------|
F#||--------------|
C#||--(feedback)--|
G#||--------------|
C#||--------------|


Guitar 2:
D#||---------------|
A#||---------------|
F#||---------------|
C#||--x-x-x-x-x-x--|
G#||--x-x-x-x-x-x--|
C#||--x-x-x-x-x-x--|


Guitar 1/2:
D#||----------------------------|
A#||----------------------------|
F#||----------------------------|
C#||--0-3-5-7-8-10-0-0-0-0-0-0--|
G#||--0-3-5-7-8-10-0-0-0-0-0-0--|
C#||--0-3-5-7-8-10-0-0-0-0-0-0--|
                   . . . . . .

D#||----------------------------|
A#||----------------------------|
F#||----------------------------|
C#||--0-3-5-7-8-10--(feedback)--|
G#||--0-3-5-7-8-10--------------|
C#||--0-3-5-7-8-10--------------|


D#||----------------|
A#||----------------|
F#||----------------|
C#||--0-3-5-7-8-10--|
G#||--0-3-5-7-8-10--|
C#||--0-3-5-7-8-10--|


Guitar 1:
D#||-----------------------------|
A#||-----------10-------------6--|
F#||-----------7--------------3--|
C#||--8--8--xx-8-----5--5--xx-5--|
G#||--8--8--xx-------5--5--xx----|
C#||--8--8--xx-------5--5--xx----|



Chorus
Guitar 1/2:
D#||---------------------------------------------------------|
A#||-----------6-------------6-------------10-------------6--|
F#||-----------7-------------7-------------7--------------3--|
C#||--0--0--xx-x----0--0--xx-x----8--8--xx-8-----5--5--xx-5--|
G#||--0--0--xx-8----0--0--xx-8----8--8--xx-------5--5--xx----|
C#||--0--0--xx------0--0--xx------8--8--xx-------5--5--xx----|


D#||-------------------------------|
A#||-----------6-------------------|
F#||-----------7-------------------|
C#||--0--0--xx-x----0--0--xx--3-7--|
G#||--0--0--xx-8----0--0--xx--3-7--|
C#||--0--0--xx------0--0--xx--3-7--|


Guitar 1:
D#||--------------------------------|--------------------------------|
A#||--/10-11-10---------------------|--------------------------------|
F#||------------12-10\7/10---12--\--|--10--10-----9----10--10-----9--|
C#||--------------------------------|--x---x---xx-x----x---x---xx-x--|
G#||--------------------------------|--8---8---xx-7----8---8---xx-7--|
C#||--------------------------------|----------xx--------------xx----|


D#||--------------------------------|-------------------------------------|
A#||--/10-11-10---------------------|-------------------------------------|
F#||------------12-10\7/10---12--\--|--14--14-----10---14-14-14-14-14-14--|
C#||--------------------------------|--x---x---xx-x----x--x--x--x--x--x---|
G#||--------------------------------|--12--12--xx-8----12-12-12-12-12-12--|
C#||--------------------------------|----------xx-------------------------|


Guitar 2:
D#||-----------------------------|
A#||-----------10-------------6--|
F#||-----------7--------------3--|
C#||--8--8--xx-8-----5--5--xx-5--|
G#||--8--8--xx-------5--5--xx----|
C#||--8--8--xx-------5--5--xx----|


D#||---------------------------------------------------------|
A#||-----------6-------------6-------------10-------------6--|
F#||-----------7-------------7-------------7--------------3--|
C#||--0--0--xx-x----0--0--xx-x----8--8--xx-8-----5--5--xx-5--|
G#||--0--0--xx-8----0--0--xx-8----8--8--xx-------5--5--xx----|
C#||--0--0--xx------0--0--xx------8--8--xx-------5--5--xx----|


D#||---------------------------|
A#||-----------6---------------|
F#||-----------7---------------|
C#||--0--0--xx-x--0-0-0-0-0-0--|
G#||--0--0--xx-8--0-0-0-0-0-0--|
C#||--0--0--xx----0-0-0-0-0-0--|



Interlude
Guitar 1:
D#||----------------------------------------------------------------------|
A#||----10-----10-----10---6-----6-----6---3-----3-----3---3-----3-----3--|
F#||-------7------7----------3-----3---------2-----2---------2-----2------|
C#||--8------8------8----5-----5-----5---0-----0-----0---0-----0-----0----| x3
G#||----------------------------------------------------------------------|
C#||----------------------------------------------------------------------|


D#||----------------------------------------------------|
A#||----10-----10-----10---6-----6-----6---3-----3------|
F#||-------7------7----------3-----3---------2-----2----|
C#||--8------8------8----5-----5-----5---0-----0-----0--|
G#||----------------------------------------------------|
C#||----------------------------------------------------|


Guitar 2:
D#||------------------------------------------------------------|
A#||------------------------------------------------------------|
F#||------------------------------------------------------------|
C#||--8-8-8-8-8----5-5-5--------0-0-0-0-0----0-0-0-0-0-0-0-0-0--|
G#||--8-8-8-8-8----5-5-5--------0-0-0-0-0----0-0-0-0-0-0-0-0-0--|
C#||--8-8-8-8-8----5-5-5--------0-0-0-0-0----0-0-0-0-0-0-0-0-0--|
      . . . . .    . . .        . . . . .    . . . . . . . . .

D#||---------------------------------------|
A#||---------------------------------------|
F#||---------------------------------------|
C#||--8-8-8-8-8----5-5-5--------0-0-0-0-0--|
G#||--8-8-8-8-8----5-5-5--------0-0-0-0-0--|
C#||--8-8-8-8-8----5-5-5--------0-0-0-0-0--|
      . . . . .    . . .        . . . . .


Guitar 1/2:
D#||--------------------|
A#||--------------------|
F#||--------------------|
C#||--0----0----0----0--|
G#||--0----0----0----0--|
C#||--0----0----0----0--|



Breakdown
Guitar 1/2:
D#||--------------------------------------------------------------|
A#||--------------------------------------------------------------|
F#||--------------------------------------------------------------|
C#||--8-8-8-8-8----5-5-5--------0-0-0-0-0----0---0---0-0-0-0-0-0--| x4
G#||--8-8-8-8-8----5-5-5--------0-0-0-0-0----0---0---0-0-0-0-0-0--|
C#||--8-8-8-8-8----5-5-5--------0-0-0-0-0----0---0---0-0-0-0-0-0--|
                                             .   .   . .   .


Outro
Guitar 1/2:
D#||--------------------------------------------------------------------|
A#||----------10101010---------6-6-6-6---------6-6-6-6---------6-6-6-6--|
F#||----------7-7-7-7----------3-3-3-3---------7-7-7-7---------7-7-7-7--|
C#||--8-8-8-8-8-8-8-8--5-5-5-5-5-5-5-5-0-0-0-0-x-x-x-x-0-0-0-0-x-x-x-x--| x2
G#||--8-8-8-8----------5-5-5-5---------0-0-0-0-8-8-8-8-0-0-0-0-8-8-8-8--|
C#||--8-8-8-8----------5-5-5-5---------0-0-0-0---------0-0-0-0----------|


Guitar 1:
D#||--------------------------------------------------------------------|
A#||----------10101010---------6-6-6-6---------6-6-6-6------------------|
F#||----------7-7-7-7----------3-3-3-3---------7-7-7-7------------------|
C#||--8-8-8-8-8-8-8-8--5-5-5-5-5-5-5-5-0-0-0-0-x-x-x-x-0-0-0-0-0-0-0-0--|
G#||--8-8-8-8----------5-5-5-5---------0-0-0-0-8-8-8-8-0-0-0-0-0-0-0-0--|
C#||--8-8-8-8----------5-5-5-5---------0-0-0-0---------0-0-0-0-0-0-0-0--|
                                                               . .

D#||--------------------------------------------------------------------|
A#||----------10101010---------6-6-6-6---------6-6-6-6------------------|
F#||----------7-7-7-7----------3-3-3-3---------7-7-7-7------------------|
C#||--8-8-8-8-8-8-8-8--5-5-5-5-5-5-5-5-0-0-0-0-x-x-x-x-0-0-0-0-0-0-0-0--|
G#||--8-8-8-8----------5-5-5-5---------0-0-0-0-8-8-8-8-0-0-0-0-0-0-0-0--|
C#||--8-8-8-8----------5-5-5-5---------0-0-0-0---------0-0-0-0-0-0-0-0--|
                                                       . . . . . . . .

Guitar 2:
D#||--------------------------------------------------|-------------------------8-8-8-10--------------|
A#||--10-11-10----10----------------------------------|--10-11-10----10------------------10-10-10-10--|
F#||-----------12----12-10-7-10-10-10-10-12-12-12-12--|-----------12----12-10-7-----------------------|
C#||--------------------------------------------------|-----------------------------------------------|
G#||--------------------------------------------------|-----------------------------------------------|
C#||--------------------------------------------------|-----------------------------------------------|


D#||--------------------------------------------------|-------------------------10-10-10-10-10-10-10-10--|
A#||--10-11-10----10----------------------------------|--10-11-10----10----------------------------------|
F#||-----------12----12-10-7-10-10-10-10-12-12-12-12--|-----------12----12-10-7--------------------------|
C#||--------------------------------------------------|--------------------------------------------------|
G#||--------------------------------------------------|--------------------------------------------------|
C#||--------------------------------------------------|--------------------------------------------------|





____________________________________________________________________________________________________

                                        T05.   BURIED AT SEA
____________________________________________________________________________________________________





Tuning: Drop C# (C# G# C# F# A# D#)


Intro
Guitar 1:
D#||-----------------------------------------------------------------------------|
A#||-----------------------------------------------------------------------------|
F#||-----------------------------------------------------------------------------|
C#||-------------------------------------------------10-14-----------------------|
G#||------10---8---5------------------------10---8-----------10---8-12-12-12-12--|
C#||--0-0----0---0---0-0-0-10-8-0-7-0-3-5-0----0---0-------0----0----------------|


D#||--------------------------------------------------------------------------|
A#||--------------------------------------------------------------------------|
F#||--------------------------------------------------------------------------|
C#||-------------------------------------------------10-14--------------------|
G#||------10---8---5------------------------10---8-----------10---8-12-12-12--|
C#||--0-0----0---0---0-0-0-10-8-0-7-0-3-5-0----0---0-------0----0-------------|



Verse
Guitar 1:
D#||-------------------|
A#||-------------------|
F#||-------------------|
C#||-------------------|
G#||-------------------|
C#||--0----------------|


Guitar 2:
D#||-------------------|
A#||-------------------|
F#||-------------------|
C#||------------3------|
G#||--------5-----5-3--|
C#||--0---0---0--------|


Guitar 1/2:
D#||----------------------------------------------------|
A#||----------------------------------------------------|
F#||----------------------------------------------------|
C#||------------3-------------------5-------------------|
G#||--------5-----5-3-------5---7-8---------8---10-8-7--|
C#||--0---0---0-------5---5---5-------8---8---8---------|
          .   .           .   .           .   .


D#||--------------------------------------------------------------------|
A#||--------------------------------------------------------------------|
F#||--------------------------------------------------------------------|
C#||------------3---------------3-------------------5-------------------| x3
G#||--------5-----5-3-------5-----5-3-------5---7-8---------8---10-8-7--|
C#||--0---0---0-------0---0---0-------5---5---5-------8---8---8---------|
          .   .           .   .           .   .           .   .


Pre-Chorus
Guitar 1:
D#||-------------------------------------------------|--------------------------------------------|
A#||-------------------------------------------------|--------------------------------------------|
F#||--9~----------9---10~--------15-15---14-14---7~--|--9~----------9---10~--------15-15---14-15--|
C#||--10~-------10------12~------x--x----x--x----8~--|--10~-------10------12~------x--x----x--x---|
G#||--10~------10----------------13-13---12-12---8~--|--10~------10----------------13-13---12-13--|
C#||-------------------------------------------------|--------------------------------------------|


D#||----------------|
A#||----------------|
F#||----------------|
C#||--12~------11~--|
G#||--8~-------8~---|
C#||--8~-------8~---|


Guitar 2:
D#||----------------------------------------|-----------------------------------|
A#||----------------------------------------|-----------------------------------|
F#||----------------------------------------|-----------------------------------|
C#||--10~------11~------12-12---10-10---8~--|--10~------11~------12-12---10-10--|
G#||--10~------12~------12-12---10-10---8~--|--10~------12~------12-12---10-10--|
C#||--10~------11~------12-12---10-10---8~--|--10~------11~------12-12---10-10--|


D#||-----------------------------------|
A#||-----------------------------------|
F#||-----------------------------------|
C#||--8---8-8-8-8-8-8-8---8-8-8-8-8-8--|
G#||--8---8-8-8-8-8-8-8---8-8-8-8-8-8--|
C#||--8---8-8-8-8-8-8-8---8-8-8-8-8-8--|
          . . . . . .     . . . . . .


Chorus
Guitar 1:
D#||------------------------------------------------------------------------------------|
A#||------------------------------------------------------------------------------------|
F#||--7---7-14-14-12-12-17-17-14-14-14-14-14-12---10---10-10---10-12---7---7-7---7-7-7--|
C#||--x---x-x--x--x--x--x--x--x--x--x--x--x--x----x----x--x----x--x----x---x-x---x-x-x--|
G#||--5---5-12-12-10-10-15-15-12-12-12-12-12-10---8----8--8----8--10---5---5-5---5-5-5--|
C#||------------------------------------------------------------------------------------|


D#||----------------------------------------------------------------------------------------------|
A#||----------------------------------------------------------------------------------------------|
F#||--7---7-14-14-12-12-17-17-14-14-14-14-14-14-14-15---15-15-15-15-14-12-15---15-15-15-15-14-12--|
C#||--x---x-x--x--x--x--x--x--x--x--x--x--x--x--x--x----x--x--x--x--x--x--x----x--x--x--x--x--x---| x2
G#||--5---5-12-12-10-10-15-15-12-12-12-12-12-12-12-13---13-13-13-13-12-10-13---13-13-13-13-12-10--|
C#||----------------------------------------------------------------------------------------------|


Guitar 2:
D#||---------------------------------------------|
A#||---------------------------------------------|
F#||---------------------------------------------|
C#||--0--00--000--000--000-8--88--888--888--888--|
G#||--0--00--000--000--000-8--88--888--888--888--|
C#||--0--00--000--000--000-8--88--888--888--888--|


D#||----------------------------------------------------------|
A#||----------------------------------------------------------|
F#||----------------------------------------------------------|
C#||--5--55--555--555--555-10--1010--101010-11--1111--111111--|
G#||--5--55--555--555--555-10--1010--101010-12--1212--121212--|
C#||--5--55--555--555--555-10--1010--101010-11--1111--111111--|


D#||---------------------------------------------------------|
A#||---------------------------------------------------------|
F#||---------------------------------------------------------|
C#||--12--1212--121212--121212--121212-8--88--888--888--888--|
G#||--12--1212--121212--121212--121212-8--88--888--888--888--|
C#||--12--1212--121212--121212--121212-8--88--888--888--888--|


D#||----------------------------------------------------------|
A#||----------------------------------------------------------|
F#||----------------------------------------------------------|
C#||--5--55--555--555--555-11--1111--111111-11--1111--111111--|
G#||--5--55--555--555--555-12--1212--121212-12--1212--121212--|
C#||--5--55--555--555--555-11--1111--111111-11--1111--111111--|



Verse
Guitar 1:
D#||--------------------------------------------------------------------|
A#||--------------------------------------------------------------------|
F#||--------------------------------------------------------------------|
C#||------------3---------------3-------------------5-------------------| x4
G#||--------5-----5-3-------5-----5-3-------5---7-8---------8---10-8-7--|
C#||--0---0---0-------0---0---0-------5---5---5-------8---8---8---------|
          .   .           .   .           .   .           .   .

Guitar 2:
D#||-------------------------------------------------------------------|
A#||-------------------------------------------------------------------|
F#||-------------------------------------------------------------------|
C#||-------------------------------------------------------------------| x2
G#||------------5---------------5---------------3-5-6-------5---6-5-3--|
C#||--0---0-8-0---8-7-0---0-8-0---8-7-5---5-8-5-------8---8---8--------|
          .   .           .   .           .   .           .   .

D#||-------------------------------------------------------------------|
A#||-------------------------------------------------------------------|
F#||-------------------------------------------------------------------|
C#||------------7---------------7---------------5-7-8-------7---8-7-5--| x2
G#||--------8-----8-7-------8-----8-7-------8--------------------------|
C#||--0---0---0-------0---0---0-------5---5---5-------8---8---8--------|
          .   .           .   .           .   .           .   .



Pre-Chorus
Guitar 1:
D#||-------------------------------------------------|--------------------------------------------|
A#||-------------------------------------------------|--------------------------------------------|
F#||--9~----------9---10~--------15-15---14-14---7~--|--9~----------9---10~--------15-15---14-15--|
C#||--10~-------10------12~------x--x----x--x----8~--|--10~-------10------12~------x--x----x--x---|
G#||--10~------10----------------13-13---12-12---8~--|--10~------10----------------13-13---12-13--|
C#||-------------------------------------------------|--------------------------------------------|


D#||---------------------------------|
A#||---------------------------------|
F#||---------------------------------|
C#||--12~----------------10----------|
G#||--8~-------12--10-------12-10-8--|
C#||--8~-----------------------------|


Guitar 2:
D#||----------------------------------------|-----------------------------------|
A#||----------------------------------------|-----------------------------------|
F#||----------------------------------------|-----------------------------------|
C#||--10~------11~------12-12---10-10---8~--|--10~------11~------12-12---10-10--|
G#||--10~------12~------12-12---10-10---8~--|--10~------12~------12-12---10-10--|
C#||--10~------11~------12-12---10-10---8~--|--10~------11~------12-12---10-10--|


D#||--------------------------------|
A#||--------------------------------|
F#||--------------------------------|
C#||--8---8-8-8-8-8-8---------------|
G#||--8---8-8-8-8-8-8---\\pick-\\---|
C#||--8---8-8-8-8-8-8----\\slide\\--|
          . . . . . .


Chorus
Guitar 1:
D#||------------------------------------------------------------------------------------|
A#||------------------------------------------------------------------------------------|
F#||--7---7-14-14-12-12-17-17-14-14-14-14-14-12---10---10-10---10-12---7---7-7---7-7-7--|
C#||--x---x-x--x--x--x--x--x--x--x--x--x--x--x----x----x--x----x--x----x---x-x---x-x-x--|
G#||--5---5-12-12-10-10-15-15-12-12-12-12-12-10---8----8--8----8--10---5---5-5---5-5-5--|
C#||------------------------------------------------------------------------------------|


D#||----------------------------------------------------------------------------------------------|
A#||----------------------------------------------------------------------------------------------|
F#||--7---7-14-14-12-12-17-17-14-14-14-14-14-14-14-15---15-15-15-15-14-12-15---15-15-15-15-14-12--|
C#||--x---x-x--x--x--x--x--x--x--x--x--x--x--x--x--x----x--x--x--x--x--x--x----x--x--x--x--x--x---| x2
G#||--5---5-12-12-10-10-15-15-12-12-12-12-12-12-12-13---13-13-13-13-12-10-13---13-13-13-13-12-10--|
C#||----------------------------------------------------------------------------------------------|


D#||--------------------------------------------|
A#||--------------------------------------------|
F#||--15---15-15-15-15-14-12-15---14---14---14--|
C#||--x----x--x--x--x--x--x--x----x----x----x---|
G#||--13---13-13-13-13-12-10-13---12---12---12--|
C#||--------------------------------------------|


Guitar 2:
D#||---------------------------------------------|
A#||---------------------------------------------|
F#||---------------------------------------------|
C#||--0--00--000--000--000-8--88--888--888--888--|
G#||--0--00--000--000--000-8--88--888--888--888--|
C#||--0--00--000--000--000-8--88--888--888--888--|


D#||----------------------------------------------------------|
A#||----------------------------------------------------------|
F#||----------------------------------------------------------|
C#||--5--55--555--555--555-10--1010--101010-11--1111--111111--|
G#||--5--55--555--555--555-10--1010--101010-12--1212--121212--|
C#||--5--55--555--555--555-10--1010--101010-11--1111--111111--|


D#||---------------------------------------------------------|
A#||---------------------------------------------------------|
F#||---------------------------------------------------------|
C#||--12--1212--121212--121212--121212-8--88--888--888--888--|
G#||--12--1212--121212--121212--121212-8--88--888--888--888--|
C#||--12--1212--121212--121212--121212-8--88--888--888--888--|


D#||----------------------------------------------------------|
A#||----------------------------------------------------------|
F#||----------------------------------------------------------|
C#||--5--55--555--555--555-11--1111--111111-11--1111--111111--|
G#||--5--55--555--555--555-12--1212--121212-12--1212--121212--|
C#||--5--55--555--555--555-11--1111--111111-11--1111--111111--|


D#||-------------------------------------|
A#||-------------------------------------|
F#||-------------------------------------|
C#||--11--1111--11111111---11---11---11--|
G#||--12--1212--12121212---12---12---12--|
C#||--11--1111--11111111---11---11---11--|



Breakdown
Guitar 1:
D#||-----------------------------------------------------------------------------|
A#||-----------------------------------------------------------------------------|
F#||-----------------------------------------------------------------------------|
C#||-------------------------------------------------10-14-----------------------| x3
G#||------10---8---5------------------------10---8-----------10---8-12-12-12-12--|
C#||--0-0----0---0---0-0-0-10-8-0-7-0-3-5-0----0---0-------0----0----------------|


D#||--------------------------------------------------------------------------|
A#||--------------------------------------------------------------------------|
F#||--------------------------------------------------------------------------|
C#||-------------------------------------------------10-14--------------------|
G#||------10---8---5------------------------10---8-----------10---8-12-12-12--|
C#||--0-0----0---0---0-0-0-10-8-0-7-0-3-5-0----0---0-------0----0-------------|


Guitar 2:
D#||------------------------------------------------------------------|
A#||------------------------------------------------------------------|
F#||------------------------------------------------------------------|
C#||------------------------------------------------------------------|
G#||--000--0-0--000--0-0------0--0-0--------0----0----0---------------|
C#||--000--0-0--000--0-0------0--0-0--------0----0----0------0h8p5-5--|
      ...  . .  ...  . .      .  . .        .    .    .

D#||-------------------------------------------------------------------|
A#||-------------------------------------------------------------------|
F#||-------------------------------------------------------------------|
C#||-------------------------------------------------------------------|
G#||--000--0-0--000--0-0------0--0-0--------0----0----0----------------|
C#||--000--0-0--000--0-0------0--0-0--------0----0----0------0h8p5-5/--|
      ...  . .  ...  . .      .  . .        .    .    .

D#||------------------------------------------------------------------|
A#||------------------------------------------------------------------|
F#||------------------------------------------------------------------|
C#||------------------------------------------------------------------|
G#||--000--0-0--000--0-0------0--0-0--------0----0----0---------------|
C#||--000--0-0--000--0-0------0--0-0--------0----0----0------0h8p5-5--|
      ...  . .  ...  . .      .  . .        .    .    .

D#||------------------------------------------------------------------|
A#||------------------------------------------------------------------|
F#||------------------------------------------------------------------|
C#||------------------------------------------------------------------|
G#||--000--0-0--000--0-0------0--0-0--------0----0----0---------------|
C#||--000--0-0--000--0-0------0--0-0--------0----0----0------0h5h8-8--|
      ...  . .  ...  . .      .  . .        .    .    .



Pre-Chorus
Guitar 1:
D#||-------------------------------------------------|--------------------------------------------|
A#||-------------------------------------------------|--------------------------------------------|
F#||--9~----------9---10~--------15-15---14-14---7~--|--9~----------9---10~--------15-15---14-15--|
C#||--10~-------10------12~------x--x----x--x----8~--|--10~-------10------12~------x--x----x--x---|
G#||--10~------10----------------13-13---12-12---8~--|--10~------10----------------13-13---12-13--|
C#||-------------------------------------------------|--------------------------------------------|


D#||-------------------------------------------------|
A#||-------------------------------------------------|
F#||-------------------------------------------------|
C#||--12~------11~------12~------14-----14-14-14-14--|
G#||--8~-------8~-------8~-------10-----10-10-10-10--|
C#||--8~-------8~-------8~-------10-----10-10-10-10--|


Guitar 2:
D#||----------------------------------------|-----------------------------------|
A#||----------------------------------------|-----------------------------------|
F#||----------------------------------------|-----------------------------------|
C#||--10~------11~------12-12---10-10---8~--|--10~------11~------12-12---10-10--|
G#||--10~------12~------12-12---10-10---8~--|--10~------12~------12-12---10-10--|
C#||--10~------11~------12-12---10-10---8~--|--10~------11~------12-12---10-10--|


D#||--------------------------------------------------------------------------|
A#||--------------------------------------------------------------------------|
F#||--------------------------------------------------------------------------|
C#||--8---8-8-8-8-8-8-8---8-8-8-8-8-8-8---8-8-8-8-8-8-10---10-10-10-10-10-10--|
G#||--8---8-8-8-8-8-8-8---8-8-8-8-8-8-8---8-8-8-8-8-8-10---10-10-10-10-10-10--|
C#||--8---8-8-8-8-8-8-8---8-8-8-8-8-8-8---8-8-8-8-8-8-10---10-10-10-10-10-10--|
          . . . . . .     . . . . . .     . . . .


Guitar 3 (Dub):
D#||--------------|
A#||--------------|
F#||--------------|
C#||--------------|
G#||--\\pick-\\---|
C#||---\\slide\\--|



Chorus
Guitar 1:
D#||------------------------------------------------------------------------------------|
A#||------------------------------------------------------------------------------------|
F#||--7---7-14-14-12-12-17-17-14-14-14-14-14-12---10---10-10---10-12---7---7-7---7-7-7--|
C#||--x---x-x--x--x--x--x--x--x--x--x--x--x--x----x----x--x----x--x----x---x-x---x-x-x--|
G#||--5---5-12-12-10-10-15-15-12-12-12-12-12-10---8----8--8----8--10---5---5-5---5-5-5--|
C#||------------------------------------------------------------------------------------|


D#||----------------------------------------------------------------------------------------------|
A#||----------------------------------------------------------------------------------------------|
F#||--7---7-14-14-12-12-17-17-14-14-14-14-14-14-14-15---15-15-15-15-14-12-15---15-15-15-15-14-12--|
C#||--x---x-x--x--x--x--x--x--x--x--x--x--x--x--x--x----x--x--x--x--x--x--x----x--x--x--x--x--x---| x2
G#||--5---5-12-12-10-10-15-15-12-12-12-12-12-12-12-13---13-13-13-13-12-10-13---13-13-13-13-12-10--|
C#||----------------------------------------------------------------------------------------------|


D#||--------------------------------------------|
A#||--------------------------------------------|
F#||--15---15-15-15-15-14-12-15---14---14---14--|
C#||--x----x--x--x--x--x--x--x----x----x----x---|
G#||--13---13-13-13-13-12-10-13---12---12---12--|
C#||--------------------------------------------|


Guitar 2:
D#||---------------------------------------------|
A#||---------------------------------------------|
F#||---------------------------------------------|
C#||--0--00--000--000--000-8--88--888--888--888--|
G#||--0--00--000--000--000-8--88--888--888--888--|
C#||--0--00--000--000--000-8--88--888--888--888--|


D#||----------------------------------------------------------|
A#||----------------------------------------------------------|
F#||----------------------------------------------------------|
C#||--5--55--555--555--555-10--1010--101010-11--1111--111111--|
G#||--5--55--555--555--555-10--1010--101010-12--1212--121212--|
C#||--5--55--555--555--555-10--1010--101010-11--1111--111111--|


D#||---------------------------------------------------------|
A#||---------------------------------------------------------|
F#||---------------------------------------------------------|
C#||--12--1212--121212--121212--121212-8--88--888--888--888--|
G#||--12--1212--121212--121212--121212-8--88--888--888--888--|
C#||--12--1212--121212--121212--121212-8--88--888--888--888--|


D#||----------------------------------------------------------|
A#||----------------------------------------------------------|
F#||----------------------------------------------------------|
C#||--5--55--555--555--555-11--1111--111111-11--1111--111111--|
G#||--5--55--555--555--555-12--1212--121212-12--1212--121212--|
C#||--5--55--555--555--555-11--1111--111111-11--1111--111111--|


D#||-------------------------------------|
A#||-------------------------------------|
F#||-------------------------------------|
C#||--11--1111--11111111---11---11---11--|
G#||--12--1212--12121212---12---12---12--|
C#||--11--1111--11111111---11---11---11--|



Outro
Guitar 1/2:
D#||------------------------------------------------------|
A#||------------------------------------------------------|
F#||------------------------------------------------------|
C#||--------------------------------------------------0~--|
G#||--000--0-0--000--0-0------0--0-0--------0----0----0~--|
C#||--000--0-0--000--0-0------0--0-0--------0----0----0~--|
      ...  . .  ...  . .      .  . .        .    .    .






____________________________________________________________________________________________________

                                         T06.   LATE ON 6TH
____________________________________________________________________________________________________





Tuning: Guitar 1: Drop C# (C# G# C# F# A# D#)
        Guitar 2: Drop C# (C# G# C# F# A# D#)
        Guitar 3: Drop A# (A# F A# D# G C)


Intro
Guitar 1:
D#||-------------------------------------------------------------------------------|
A#||--------------------------------------0~---------------------------------------|
F#||--5~-------------0~----2~----------------------------------0~----4~--------5~--|
C#||--7~-------------------3~-------------------3~-------------------5~------------|
G#||--7~-------------------3~-------------------0~-------------------5~------------|
C#||--7~-------------------3~-------------------0~-------------------5~------------|



Verse
Guitar 1:
D#||---------------------------------------------------------------------------------0~--|
A#||-----------0~----------------0~------------------------------------------------------|
F#||--5~----7~-------0~----2~-------0~-------------------------------4~--------5~--------|
C#||--7~-------------------3~-------------------3~--------5~---------5~------------------|
G#||--7~-------------------3~-------------------0~--------0~---------5~------------------|
C#||--7~-------------------3~-------------------0~--------0~---------5~------------------|


D#||---------------------------------------------------------------------------------0~--|
A#||-----------0~----------------0~------------------------------------------------------|
F#||--5~----7~-------0~----2~-------0~-------------------------------4~--------5~--------|
C#||--7~-------------------3~-------------------3~--------5~---------5~------------------|
G#||--7~-------------------3~-------------------0~--------0~---------5~------------------|
C#||--7~-------------------3~-------------------0~--------0~---------5~------------------|


D#||---------------------------------------------------------------------------------0~--|
A#||-----------0~----------------0~------------------------------------------------------|
F#||--5~----7~-------0~----2~-------0~-------------------------------4~--------5~--------|
C#||--7~-------------------3~-------------------3~--------5~---7~----5~------------------|
G#||--7~-------------------3~-------------------0~--------0~---------5~------------------|
C#||--7~-------------------3~-------------------0~--------0~---------5~------------------|



Chorus
Guitar 1:
D#||--------------------------------------|
A#||--------------------------------------|
F#||--0~------------11--9~-------------4--|
C#||--2~------------12--10~------------5--| x3
G#||--2~------------12--10~------------5--|
C#||--2~------------12--10~------------5--|


D#||-------------------------|
A#||-------------------------|
F#||--0~------------11--9~---|
C#||--2~------------12--10~--|
G#||--2~------------12--10~--|
C#||--2~------------12--10~--|


Guitar 2:
D#||----------10~-----------------10~-------------10~--|
A#||-------7~------------------7~----------------------|
F#||----7~------------------7~---------------7~--------|
C#||--9~-----------------------------------------------| x4
G#||---------------------10~------------7~-------------|
C#||---------------------------------------------------|



Verse
Guitar 1:
D#||---------------------------------------------------------------------------------0~--|
A#||-----------0~----------------0~------------------------------------------------------|
F#||--5~----7~-------0~----2~-------0~-------------------------------4~--------5~--------|
C#||--7~-------------------3~-------------------3~--------5~---7~----5~------------------| x2
G#||--7~-------------------3~-------------------0~--------0~---------5~------------------|
C#||--7~-------------------3~-------------------0~--------0~---------5~------------------|



Chorus
Guitar 1:
D#||--------------------------------------|
A#||--------------------------------------|
F#||--0~------------11--9~-------------4--|
C#||--2~------------12--10~------------5--| x3
G#||--2~------------12--10~------------5--|
C#||--2~------------12--10~------------5--|


D#||-------------------------|
A#||-------------------------|
F#||--0~------------11--9~---|
C#||--2~------------12--10~--|
G#||--2~------------12--10~--|
C#||--2~------------12--10~--|


Guitar 2:
D#||----------10~-----------------10~-------------10~--|
A#||-------7~------------------7~----------------------|
F#||----7~------------------7~---------------7~--------|
C#||--9~-----------------------------------------------| x4
G#||---------------------10~------------7~-------------|
C#||---------------------------------------------------|



Interlude
Guitar 2:
D#||----------10~-----------------10~-------------10~--|
A#||-------7~------------------7~----------------------|
F#||----7~------------------7~---------------7~--------|
C#||--9~-----------------------------------------------| x4
G#||---------------------10~------------7~-------------|
C#||---------------------------------------------------|



Outro
Guitar 2:
D#||----------10~-----------------10~-------------10~-9~--|
A#||-------7~------------------7~-------------------------|
F#||----7~------------------7~---------------7~-----------|
C#||--9~--------------------------------------------------| x6
G#||---------------------10~------------7~----------------|
C#||------------------------------------------------------|


Guitar 3:
C ||------------------------------------------------------|
G#||------------------------------------------------------|
D#||------------------------------------------------------|
A#||--8~------------8--8~------------5~------------5--5~--|
F ||--8~------------8--8~------------5~------------5--5~--|
A#||--8~------------8--8~------------5~------------5--5~--|


C ||------------------------------------------------------|
G#||------------------------------------------------------|
D#||------------------------------------------------------|
A#||--0~------------0--0~------------0~------------0--0~--| x3
F ||--0~------------0--0~------------0~------------0--0~--|
A#||--0~------------0--0~------------0~------------0--0~--|





____________________________________________________________________________________________________

                                          T07.   MILESTONE
____________________________________________________________________________________________________





Tuning: Drop C# (C# G# C# F# A# D#)


Intro
Guitar 1:
D#||---------------------------------------------------------------------|
A#||--------------------------------------------------------6------------|
F#||--------------------------------------------------------9b10---------|
C#||----------------------------------------------------8-x-------x-11~--|
G#||--0-0-0-0-0-0-0-0-0-0-0-0-0-0-0-0-0-0-0-0-0-0-0-0-0-8-x-------x-11~--|
C#||--0-0-0-0-0-0-0-0-0-0-0-0-0-0-0-0-0-0-0-0-0-0-0-0-0-8-x-------x-11~--|
      . . . . . . . . . . . . . . . . . . . . . . . . .

D#||------------------------------------------------------------------|
A#||------------------------------------------------------------------|
F#||--------------------------------------------------------9---------|
C#||----------------------------------------------------8-x-9---x-1---| x2
G#||--0-0-0-0-0-0-0-0-0-0-0-0-0-0-0-0-0-0-0-0-0-0-0-0-0-8-x-7---x-1~--|
C#||--0-0-0-0-0-0-0-0-0-0-0-0-0-0-0-0-0-0-0-0-0-0-0-0-0-8-x-----x-1~--|
      . . . . . . . . . . . . . . . . . . . . . . . . .

D#||-------|
A#||-------|
F#||-------|
C#||-------|
G#||--0-0--|
C#||--0-0--|
      . .

Guitar 2:
D#||---------------------------------------------------|
A#||--11-11-11-11-11-11-11-11-11-11-11-11-11-11-11-11--|
F#||---------------------------------------------------|
C#||---------------------------------------------------| x8
G#||---------------------------------------------------|
C#||---------------------------------------------------|



Verse
Guitar 1/2:
D#||--------------------------------|---------------------------------------|
A#||--------------------------------|---------------------------------------|
F#||-------9------------------------|-------9-------------------------------|
C#||--0-8--9--8---------------------|--0-8--9--8--11-11-11---11-11-11---11--|
G#||--0-8--7--8---------------------|--0-8--7--8--11-11-11---11-11-11---11--|
C#||--0-8-----8--0-0-0---0-0-0---0--|--0-8-----8--11-11-11---11-11-11---11--|


D#||--------------------------------|-------------------------------|
A#||--------------------------------|-------------------------------|
F#||-------9------------------------|-------9-----------------------|
C#||--0-8--9--8---------------------|--0-8--9--8--8-11--------------|
G#||--0-8--7--8---------------------|--0-8--7--8--8-11-----/pick-/--|
C#||--0-8-----8--0-0-0---0-0-0---0--|--0-8-----8--8-11----/slide/---|


D#||--------------------------------|---------------------------------------|
A#||--------------------------------|---------------------------------------|
F#||-------9------------------------|-------9-------------------------------|
C#||--0-8--9--8---------------------|--0-8--9--8--11-11-11---11-11-11---11--|
G#||--0-8--7--8---------------------|--0-8--7--8--11-11-11---11-11-11---11--|
C#||--0-8-----8--0-0-0---0-0-0---0--|--0-8-----8--11-11-11---11-11-11---11--|


D#||--------------------------------|----------------------------------------|
A#||--------------------------------|----------------------------------------|
F#||-------9------------------------|-------9--------------------------------|
C#||--0-8--9--8---------------------|--0-8--9--8--8-11-11-11-11-11-11-11-11--|
G#||--0-8--7--8---------------------|--0-8--7--8--8-11-11-11-11-11-11-11-11--|
C#||--0-8-----8--0-0-0---0-0-0---0--|--0-8-----8--8-11-11-11-11-11-11-11-11--|
                                                    .  .  .



Chorus
Guitar 1:
D#||---------------------------------------------------------------------------------|
A#||--6-6-6-6-6-6-10-10-5-5-5-5-5-5-5-5-10-10-10-10-8-8-8-8-11-11-11-11-10-10-10-10--|
F#||--7-7-7-7-7-7-10-10-5-5-5-5-5-5-5-5-10-10-10-10-9-9-9-9-12-12-12-12-10-10-10-10--|
C#||---------------------------------------------------------------------------------|
G#||---------------------------------------------------------------------------------|
C#||---------------------------------------------------------------------------------|


D#||---------------------------------------------------------------------------------|
A#||--10-10-10-10-10-10-8-8-11-11-11-11-10-10-10-10-6-6-6-6-6-6-6-6-5-5-5-5-5-5-5-5--|
F#||--10-10-10-10-10-10-9-9-12-12-12-12-10-10-10-10-5-5-5-5-5-5-5-5-6-6-6-6-6-6-6-6--|
C#||---------------------------------------------------------------------------------| x2
G#||---------------------------------------------------------------------------------|
C#||---------------------------------------------------------------------------------|


Guitar 2:
D#||-------------------------------------------------------------------|
A#||-------------------------------------------------------------------|
F#||--7-7-7-7-7-7-7-7-7-7-7-7-7-7-7-7-3-3-3-3-3-3-3-3-3-3-3-3----------|
C#||--7-7-7-7-7-7-7-7-7-7-7-7-7-7-7-7-3-3-3-3-3-3-3-3-3-3-3-3----------|
G#||--5-5-5-5-5-5-5-5-5-5-5-5-4-4-4-4-1-1-1-1-1-1-1-1-1-1-1-1-0-0---0--|
C#||--------------------------------------------------------------3----|


D#||-------------------------------------------------------------------|
A#||-------------------------------------------------------------------|
F#||-------------------------------------------------------------------|
C#||--5-5-5-5-5-5-5-5-5-5-5-5-5-5-5-5-3-3-3-3-3-3-3-3-2-2-2-2-2-2-2-2--|
G#||--5-5-5-5-5-5-5-5-5-5-5-5-5-5-5-5-3-3-3-3-3-3-3-3-4-4-4-4-4-4-4-4--|
C#||--5-5-5-5-5-5-5-5-5-5-5-5-5-5-5-5-3-3-3-3-3-3-3-3-2-2-2-2-2-2-2-2--|


D#||-------------------------------------------------------------------|
A#||-------------------------------------------------------------------|
F#||--7-7-7-7-7-7-7-7-7-7-7-7-7-7-7-7-3-3-3-3-3-3-3-3-3-3-3-3----------|
C#||--7-7-7-7-7-7-7-7-7-7-7-7-7-7-7-7-3-3-3-3-3-3-3-3-3-3-3-3----------|
G#||--5-5-5-5-5-5-5-5-5-5-5-5-4-4-4-4-1-1-1-1-1-1-1-1-1-1-1-1-0-0---0--|
C#||--------------------------------------------------------------3----|


D#||-------------------------------------------------------------------|
A#||-------------------------------------------------------------------|
F#||-------------------------------------------------------------------|
C#||--5-5-5-5-5-5-5-5-5-5-5-5-5-5-5-5-3-3-3-3-3-3-3-3-2-2-2-2-2-2-2-2--|
G#||--5-5-5-5-5-5-5-5-5-5-5-5-5-5-5-5-3-3-3-3-3-3-3-3-4-4-4-4-4-4-4-4--|
C#||--5-5-5-5-5-5-5-5-5-5-5-5-5-5-5-5-3-3-3-3-3-3-3-3-2-2-2-2-2-2-2-2--|
                                      .               .



Pre-Verse
Guitar 1:
D#||---------------------------------------------------------------------|
A#||--------------------------------------------------------6------------|
F#||--------------------------------------------------------9b10---------|
C#||----------------------------------------------------8-x-------x-11~--|
G#||--0-0-0-0-0-0-0-0-0-0-0-0-0-0-0-0-0-0-0-0-0-0-0-0-0-8-x-------x-11~--|
C#||--0-0-0-0-0-0-0-0-0-0-0-0-0-0-0-0-0-0-0-0-0-0-0-0-0-8-x-------x-11~--|
      . . . . . . . . . . . . . . . . . . . . . . . . .

D#||------------------------------------------------------------------|
A#||------------------------------------------------------------------|
F#||--------------------------------------------------------9---------|
C#||----------------------------------------------------8-x-9---x-1---| x2
G#||--0-0-0-0-0-0-0-0-0-0-0-0-0-0-0-0-0-0-0-0-0-0-0-0-0-8-x-7---x-1~--|
C#||--0-0-0-0-0-0-0-0-0-0-0-0-0-0-0-0-0-0-0-0-0-0-0-0-0-8-x-----x-1~--|
      . . . . . . . . . . . . . . . . . . . . . . . . .


Guitar 2:
D#||---------------------------------------------------|
A#||--11-11-11-11-11-11-11-11-11-11-11-11-11-11-11-11--|
F#||---------------------------------------------------|
C#||---------------------------------------------------| x4
G#||---------------------------------------------------|
C#||---------------------------------------------------|


Guitar 1:
D#||---------------------|------------------|
A#||---------------------|------------------|
F#||---------------------|--------9---------|
C#||---------------------|--0-8-x-9---x-1~--|
G#||--0-0----------------|--0-8-x-7---x-1~--|
C#||--0-0----------------|--0-8-x-----x-1~--|
      . .

Guitar 2:
D#||---------------------|------------------|
A#||--------6------------|------------------|
F#||--------9b10---------|------------------|
C#||----8-x-------x-11~--|------------------|
G#||--0-8-x-------x-11~--|---/pick-/--------|
C#||--0-8-x-------x-11~--|--/slide/---------|
      .



Verse
Guitar 1/2:
D#||--------------------------------|---------------------------------------|
A#||--------------------------------|---------------------------------------|
F#||-------9------------------------|-------9-------------------------------|
C#||--0-8--9--8---------------------|--0-8--9--8--11-11-11---11-11-11---11--|
G#||--0-8--7--8---------------------|--0-8--7--8--11-11-11---11-11-11---11--|
C#||--0-8-----8--0-0-0---0-0-0---0--|--0-8-----8--11-11-11---11-11-11---11--|


D#||--------------------------------|-------------------|
A#||--------------------------------|-------------------|
F#||-------9------------------------|-------9-----------|
C#||--0-8--9--8---------------------|--0-8--9--8--8-11--|
G#||--0-8--7--8---------------------|--0-8--7--8--8-11--|
C#||--0-8-----8--0-0-0---0-0-0---0--|--0-8-----8--8-11--|


Guitar 1:
D#||------------|------------|
A#||------------|------------|
F#||------------|------------|
C#||------------|------------|
G#||---/pick-/--|------------|
C#||--/slide/---|------------|

Guitar 2:
D#||------------|------------|
A#||------------|------------|
F#||------------|------------|
C#||------------|------------|
G#||------------|---/pick-/--|
C#||------------|--/slide/---|


D#||--------------------------------|-----------------------------------------|
A#||--------------------------------|-----------------------------------------|
F#||-------9------------------------|-------9---------------------------------|
C#||--0-8--9--8----0-0-0-0-0-0-0-0--|--0-8--9--8--11-11-11-11-11-11-11-11-11--|
G#||--0-8--7--8----0-0-0-0-0-0-0-0--|--0-8--7--8--11-11-11-11-11-11-11-11-11--|
C#||--0-8-----8--0-0-0-0-0-0-0-0-0--|--0-8-----8--11-11-11-11-11-11-11-11-11--|
                   . . . . . . . .

D#||--------------------------------|--------------------------------|
A#||--------------------------------|--------------------------------|
F#||-------9------------------------|-------9------------------------|
C#||--0-8--9--8----0-0---0-0-0---0--|--0-8--9--8--8-x-x-x-x-x-x-x-x--|
G#||--0-8--7--8----0-0---0-0-0---0--|--0-8--7--8--8-x-x-x-x-x-x-x-x--|
C#||--0-8-----8--0-0-0---0-0-0---0--|--0-8-----8--8-x-x-x-x-x-x-x-x--|
                   . .   . . .   .


Chorus
Guitar 1:
D#||---------------------------------------------------------------------------------|
A#||--6-6-6-6-6-6-10-10-5-5-5-5-5-5-5-5-10-10-10-10-8-8-8-8-11-11-11-11-10-10-10-10--|
F#||--7-7-7-7-7-7-10-10-5-5-5-5-5-5-5-5-10-10-10-10-9-9-9-9-12-12-12-12-10-10-10-10--|
C#||---------------------------------------------------------------------------------|
G#||---------------------------------------------------------------------------------|
C#||---------------------------------------------------------------------------------|


D#||---------------------------------------------------------------------------------|
A#||--10-10-10-10-10-10-8-8-11-11-11-11-10-10-10-10-6-6-6-6-6-6-6-6-5-5-5-5-5-5-5-5--|
F#||--10-10-10-10-10-10-9-9-12-12-12-12-10-10-10-10-5-5-5-5-5-5-5-5-6-6-6-6-6-6-6-6--|
C#||---------------------------------------------------------------------------------|
G#||---------------------------------------------------------------------------------|
C#||---------------------------------------------------------------------------------|


D#||---------------------------------------------------------------------------------|
A#||--6-6-6-6-6-6-10-10-5-5-5-5-5-5-5-5-10-10-10-10-8-8-8-8-11-11-11-11-10-10-10-10--|
F#||--7-7-7-7-7-7-10-10-5-5-5-5-5-5-5-5-10-10-10-10-9-9-9-9-12-12-12-12-10-10-10-10--|
C#||---------------------------------------------------------------------------------|
G#||---------------------------------------------------------------------------------|
C#||---------------------------------------------------------------------------------|


D#||----------------------------------------------------------------------------------------------|
A#||--10-10-10-10-10-10-8-8-11-11-11-11-10-10-10-10-10-10-10-10-10-10-10-10-11-11-11-11-11--------|
F#||--10-10-10-10-10-10-9-9-12-12-12-12-10-10-10-10-10-10-10-10-10-10-10-10-12-12-12-12-12--------|
C#||---------------------------------------------------------------------------------------x-*10--|
G#||---------------------------------------------------------------------------------------x------|
C#||---------------------------------------------------------------------------------------x------|


Guitar 2:
D#||-------------------------------------------------------------------|
A#||-------------------------------------------------------------------|
F#||--7-7-7-7-7-7-7-7-7-7-7-7-7-7-7-7-3-3-3-3-3-3-3-3-3-3-3-3----------|
C#||--7-7-7-7-7-7-7-7-7-7-7-7-7-7-7-7-3-3-3-3-3-3-3-3-3-3-3-3----------|
G#||--5-5-5-5-5-5-5-5-5-5-5-5-4-4-4-4-1-1-1-1-1-1-1-1-1-1-1-1-0-0---0--|
C#||--------------------------------------------------------------3----|


D#||-------------------------------------------------------------------|
A#||-------------------------------------------------------------------|
F#||-------------------------------------------------------------------|
C#||--5-5-5-5-5-5-5-5-5-5-5-5-5-5-5-5-3-3-3-3-3-3-3-3-2-2-2-2-2-2-2-2--|
G#||--5-5-5-5-5-5-5-5-5-5-5-5-5-5-5-5-3-3-3-3-3-3-3-3-4-4-4-4-4-4-4-4--|
C#||--5-5-5-5-5-5-5-5-5-5-5-5-5-5-5-5-3-3-3-3-3-3-3-3-2-2-2-2-2-2-2-2--|


D#||-------------------------------------------------------------------|
A#||-------------------------------------------------------------------|
F#||--7-7-7-7-7-7-7-7-7-7-7-7-7-7-7-7-3-3-3-3-3-3-3-3-3-3-3-3----------|
C#||--7-7-7-7-7-7-7-7-7-7-7-7-7-7-7-7-3-3-3-3-3-3-3-3-3-3-3-3----------|
G#||--5-5-5-5-5-5-5-5-5-5-5-5-4-4-4-4-1-1-1-1-1-1-1-1-1-1-1-1-0-0---0--|
C#||--------------------------------------------------------------3----|


D#||------------------------------------------------------------------|
A#||------------------------------------------------------------------|
F#||------------------------------------------------------------------|
C#||--5-5-5-5-5-5-5-5-5-5-5-5-5-5-5-5-3-3-3-3-3-3-3-3-1-1-1-1-1-x-'5--|
G#||--5-5-5-5-5-5-5-5-5-5-5-5-5-5-5-5-3-3-3-3-3-3-3-3-1-1-1-1-1-x-----|
C#||--5-5-5-5-5-5-5-5-5-5-5-5-5-5-5-5-3-3-3-3-3-3-3-3-1-1-1-1-1-x-----|
                                      .               .


Breakdown
Guitar 1/2:
D#||-----------------------------------------------------------|
A#||-----------------------------------------------7-----------|
F#||-------3-------------------------3-------------10b11-------|
C#||--0-2--3--2-----------------0-2--3--2--/11--8---------x-1--|
G#||--0-2--1--2-----------------0-2--1--2--/11--8---------x-1--|
C#||--0-2-----2-----------------0-2-----2--/11--8---------x-1--|

                            (1)
D#||-----------------------------------------------------------|
A#||-----------------------------------------------7-----------|
F#||-------3-------------------------3-------------10b11-------|
C#||--0-2--3--2-------------x-x-0-2--3--2--/11--8---------x-1--|
G#||--0-2--1--2-------------x-x-0-2--1--2--/11--8---------x-1--|
C#||--0-2-----2-------------x-x-0-2-----2--/11--8---------x-1--|


D#||-----------------------------------------------------------|
A#||-----------------------------------------------7-----------|
F#||-------9-------------------------9-------------10b11-------|
C#||--0-8--9--8-----------------0-8--9--8--/11--8---------x-1--|
G#||--0-8--7--8-----------------0-8--7--8--/11--8---------x-1--|
C#||--0-8-----8-----------------0-8-----8--/11--8---------x-1--|


D#||-----------------------------------------------------------|
A#||-----------------------------------------------7-----------|
F#||-------9-------------------------9-------------10b11-------|
C#||--0-8--9--8-x-x---x-x---x-x-0-8--9--8--/11--8---------x-1--|
G#||--0-8--7--8-x-x---x-x---x-x-0-8--7--8--/11--8---------x-1--|
C#||--0-8-----8-x-x---x-x---x-x-0-8-----8--/11--8---------x-1--|



Bridge
Guitar 1:
D#||-------------------------------------------------------------------|
A#||-------------------------------------------------------------------|
F#||-------------------------------------------------------------------|
C#||--0-0-0-0-0-0-0-0-0-0-0-0-0-0-0-0-0-0-0-0-0-0-0-0-0-0-0-0-0-0-0-0--| x4
G#||--0-0-0-0-0-0-0-0-0-0-0-0-0-0-0-0-0-0-0-0-0-0-0-0-0-0-0-0-0-0-0-0--|
C#||--0-0-0-0-0-0-0-0-0-0-0-0-0-0-0-0-0-0-0-0-0-0-0-0-0-0-0-0-0-0-0-0--|
      . . . . . . . . . . . . . . . . . . . . . . . . . . . . . . . .


Guitar 2 (Listen for when to come in):
D#||-------------------------------------------------------------------|
A#||-------------------------------------------------------------------|
F#||-------------------------------------------------------------------|
C#||--0-0-0-0-0-0-0-0-0-0-0-0-0-0-0-0-0-0-0-0-0-0-0-0-0-0-0-0-0-0-0-0--|
G#||--0-0-0-0-0-0-0-0-0-0-0-0-0-0-0-0-0-0-0-0-0-0-0-0-0-0-0-0-0-0-0-0--|
C#||--0-0-0-0-0-0-0-0-0-0-0-0-0-0-0-0-0-0-0-0-0-0-0-0-0-0-0-0-0-0-0-0--|
      . . . . . . . . . . . . . . . . . . . . . . . . . . . . . . . .


D#||----------------------|
A#||----------------------|
F#||----------------------|
C#||----------------------|
G#||----------------------|
C#||--//harmonic-slide\\--|


Guitar 2 (Dub):
D#||---------------------------------------------------|
A#||--11-11-11-11-11-11-11-11-11-11-11-11-11-11-11-11--|
F#||---------------------------------------------------|
C#||---------------------------------------------------| x4
G#||---------------------------------------------------|
C#||---------------------------------------------------|


Guitar 1:
D#||--------------------------------|
A#||--6-6-6-6-6-6-10-10-5-5-5-5-5~--|
F#||--7-7-7-7-7-7-10-10-5-5-5-5-6~--|
C#||--------------------------------|
G#||--------------------------------|
C#||--------------------------------|


Guitar 2:
D#||------------------------------|
A#||------------------------------|
F#||--7-7-7-7-7-7-7-7-7-7-7-7-7~--|
C#||--7-7-7-7-7-7-7-7-7-7-7-7-7~--|
G#||--5-5-5-5-5-5-5-5-5-5-5-5-4~--|
C#||------------------------------|



Chorus
Guitar 1:
D#||-----------------------------------------------|
A#||--10-10-10-10-8-8-8-8-11-11-11-11-10-10-10-10--|
F#||--10-10-10-10-9-9-9-9-12-12-12-12-10-10-10-10--|
C#||-----------------------------------------------|
G#||-----------------------------------------------|
C#||-----------------------------------------------|


D#||---------------------------------------------------------------------------------|
A#||--10-10-10-10-10-10-8-8-11-11-11-11-10-10-10-10-6-6-6-6-6-6-6-6-5-5-5-5-5-5-5-5--|
F#||--10-10-10-10-10-10-9-9-12-12-12-12-10-10-10-10-5-5-5-5-5-5-5-5-6-6-6-6-6-6-6-6--|
C#||---------------------------------------------------------------------------------|
G#||---------------------------------------------------------------------------------|
C#||---------------------------------------------------------------------------------|


D#||---------------------------------------------------------------------------------|
A#||--6-6-6-6-6-6-10-10-5-5-5-5-5-5-5-5-10-10-10-10-8-8-8-8-11-11-11-11-10-10-10-10--|
F#||--7-7-7-7-7-7-10-10-5-5-5-5-5-5-5-5-10-10-10-10-9-9-9-9-12-12-12-12-10-10-10-10--|
C#||---------------------------------------------------------------------------------|
G#||---------------------------------------------------------------------------------|
C#||---------------------------------------------------------------------------------|


D#||----------------------------------------------------------------------------------------------|
A#||--10-10-10-10-10-10-8-8-11-11-11-11-10-10-10-10-10-10-10-10-10-10-10-10-11-11-11-11-11--------|
F#||--10-10-10-10-10-10-9-9-12-12-12-12-10-10-10-10-10-10-10-10-10-10-10-10-12-12-12-12-12--------|
C#||---------------------------------------------------------------------------------------x-*10--|
G#||---------------------------------------------------------------------------------------x------|
C#||---------------------------------------------------------------------------------------x------|


Guitar 2:
D#||-----------------------------------|
A#||-----------------------------------|
F#||--3-3-3-3-3-3-3-3-3-3-3-3----------|
C#||--3-3-3-3-3-3-3-3-3-3-3-3----------|
G#||--1-1-1-1-1-1-1-1-1-1-1-1-0-0---0--|
C#||------------------------------3----|


D#||-------------------------------------------------------------------|
A#||-------------------------------------------------------------------|
F#||-------------------------------------------------------------------|
C#||--5-5-5-5-5-5-5-5-5-5-5-5-5-5-5-5-3-3-3-3-3-3-3-3-2-2-2-2-2-2-2-2--|
G#||--5-5-5-5-5-5-5-5-5-5-5-5-5-5-5-5-3-3-3-3-3-3-3-3-4-4-4-4-4-4-4-4--|
C#||--5-5-5-5-5-5-5-5-5-5-5-5-5-5-5-5-3-3-3-3-3-3-3-3-2-2-2-2-2-2-2-2--|


D#||-------------------------------------------------------------------|
A#||-------------------------------------------------------------------|
F#||--7-7-7-7-7-7-7-7-7-7-7-7-7-7-7-7-3-3-3-3-3-3-3-3-3-3-3-3----------|
C#||--7-7-7-7-7-7-7-7-7-7-7-7-7-7-7-7-3-3-3-3-3-3-3-3-3-3-3-3----------|
G#||--5-5-5-5-5-5-5-5-5-5-5-5-4-4-4-4-1-1-1-1-1-1-1-1-1-1-1-1-0-0---0--|
C#||--------------------------------------------------------------3----|


D#||------------------------------------------------------------------|
A#||------------------------------------------------------------------|
F#||------------------------------------------------------------------|
C#||--5-5-5-5-5-5-5-5-5-5-5-5-5-5-5-5-3-3-3-3-3-3-3-3-1-1-1-1-1-x-'5--|
G#||--5-5-5-5-5-5-5-5-5-5-5-5-5-5-5-5-3-3-3-3-3-3-3-3-1-1-1-1-1-x-----|
C#||--5-5-5-5-5-5-5-5-5-5-5-5-5-5-5-5-3-3-3-3-3-3-3-3-1-1-1-1-1-x-----|
                                      .               .


Outro
Guitar 1/2:
D#||-----------------------------------------------------------|
A#||-----------------------------------------------7-----------|
F#||-------3-------------------------3-------------10b11-------|
C#||--0-2--3--2-----------------0-2--3--2--/11--8---------x-1--|
G#||--0-2--1--2-----------------0-2--1--2--/11--8---------x-1--|
C#||--0-2-----2-----------------0-2-----2--/11--8---------x-1--|


D#||-----------------------------------------------------------|
A#||-----------------------------------------------7-----------|
F#||-------3-------------------------3-------------10b11-------|
C#||--0-2--3--2-----------------0-2--3--2--/11--8---------x-1--|
G#||--0-2--1--2-----------------0-2--1--2--/11--8---------x-1--|
C#||--0-2-----2-----------------0-2-----2--/11--8---------x-1--|


D#||--------|
A#||--------|
F#||--------|
C#||--0-0~--|
G#||--0-0~--|
C#||--0-0~--|
      . .





____________________________________________________________________________________________________

                                   T08.   THE CONTINUAL CONDITION
____________________________________________________________________________________________________





Tuning: Drop C# (C# G# C# F# A# D#)


Intro
Guitar 1:
D#||-------------------------------------------------------------------------|
A#||-------------------------------------------------------------------------|
F#||--7-7-7-9-9-9-10-10-10-9-9-9-7-7-7-7-7-7-7-9-9-9-10-10-10-9-9-9-7-7-7-7--|
C#||--0-0-0-0-0-0-0--0--0--0-0-0-0-0-0-0-8-8-8-8-8-8-8--8--8--8-8-8-8-8-8-8--|
G#||-------------------------------------------------------------------------|
C#||-------------------------------------------------------------------------|
      . . . . . . .  .  .  . . . . . . . . . . . . . .  .  .  . . . . . . .

D#||-------------------------------------------------------------------------|
A#||-------------------------------------------------------------------------|
F#||--9--9--9--10-10-10-12-12-12-10-10-10-9--9--9--9---10-10-10-10-10-10-9~--|
C#||--10-10-10-10-10-10-10-10-10-10-10-10-10-10-10-10--8--8--8--8--8--8------|
G#||-------------------------------------------------------------------------|
C#||-------------------------------------------------------------------------|
      .  .  .  .  .  .  .  .  .  .  .  .  .  .  .  .   .  .  .  .  .  .



Pre-Verse
Guitar 1/2:
D#||--------------------------------------------------------------|
A#||--------------------------------------------------------------|
F#||--------------------------------------------------------------|
C#||---------------------------------------8----------------------|
G#||---------------------------------------8----------------------|
C#||--0-----12\-----0-7-10-8---7-5-7-8-----8-----3-5-5-3-5-0-3-5--|


D#||--------------------------------------------------------------|
A#||--------------------------------------------------------------|
F#||--------------------------------------------------------------|
C#||--------12\----------------------------8----x-3---2---3-/-10--|
G#||--------12\----------------------------8----x-3---3---3-/-10--|
C#||--0-----12\-----0-7-10-8---7-5-7-8-----8----x-3---2---3-/-10--|


D#||--------------------------------------------------------------|
A#||--------------------------------------------------------------|
F#||--------------------------------------------------------------|
C#||--12------0----------------------------8----------------------|
G#||--12------0----------------------------8----------------------|
C#||--12------0-----0-7-10-8---7-5-7-8-----8-----3-5-5-3-5-0-3-5--|


D#||--------------------------------------------------------------|
A#||--------------------------------------------------------------|
F#||--------------------------------------------------------------|
C#||---------------------------------------8----x-3---2---3-/-10--|
G#||---------------------------------------8----x-3---3---3-/-10--|
C#||--0-----12\-----0-7-10-8---7-5-7-8-----8----x-3---2---3-/-10--|



Verse
Guitar 1/2:
D#||-------------------------------------------------------------------|
A#||-------------------------------------------------------------------|
F#||-------------------------------------------------------------------|
C#||--3-3-3-3-3-3-3-3-5-5-5-5-7-7-7-7-2-2-2-2-2-2-2-2-3-3-3-3-5-5-5-5--|
G#||--5-5-5-5-5-5-5-5-5-5-5-5-5-5-5-3-3-3-3-3-3-3-3-3-3-3-3-3-3-3-3-3--|
C#||-------------------------------------------------------------------|
      . . . . . . . . . . . . . . . . . . . . . . . . . . . . . . . .

D#||-------------------------------------------------------------------|
A#||-------------------------------------------------------------------|
F#||-------------------------------------------------------------------|
C#||--3-3-3-3-3-3-3-3-5-5-5-5-3-3-3-3-2-2-2-2-2-2-2-2-3-3-3-3-5-5-5-5--|
G#||--1-1-1-1-1-1-1-1-1-1-1-1-1-1-1-3-3-3-3-3-3-3-3-3-3-3-3-3-3-3-3-3--|
C#||-------------------------------------------------------------------|
      . . . . . . . . . . . . . . . . . . . . . . . . . . . . . . . .



Pre-Chorus
Guitar 1:
D#||---------------------------------------------------------|
A#||---------------------------------------------------------|
F#||---------------------------------------------------------|
C#||--/7---5--3-2~----/5--3--2-3~---5~----2---3---5-5/7---5--|
G#||---------------------------------------------------------|
C#||---------------------------------------------------------|


D#||-----------------------------------|
A#||-----------------------------------|
F#||------------------5-5-5-5----------|
C#||--7-7-7-7-7-7-7-7---------3h5-5-5--|
G#||-----------------------------------|
C#||-----------------------------------|


Guitar 2:
D#||-------------------------------------------------------------------|
A#||-------------------------------------------------------------------|
F#||-------------------------------------------------------------------|
C#||--3-3-3-3-3-3-3-3-5-5-5-5-7-7-7-7-2-2-2-2-2-2-2-2-3-3-3-3-5-5-5-5--|
G#||--5-5-5-5-5-5-5-5-5-5-5-5-5-5-5-3-3-3-3-3-3-3-3-3-3-3-3-3-3-3-3-3--|
C#||-------------------------------------------------------------------|
      . . . . . . . . . . . . . . . . . . . . . . . . . . . . . . . .

D#||-------------------------------------------------------------------|
A#||-------------------------------------------------------------------|
F#||-------------------------------------------------------------------|
C#||--3-3-3-3-3-3-3-3-5-5-5-5-3-3-3-3-2-2-2-2-2-2-2-2-3-3-3-3-3h5-5-5--|
G#||--1-1-1-1-1-1-1-1-1-1-1-1-1-1-1-3-3-3-3-3-3-3-3-3-3-3-3-3----------|
C#||-------------------------------------------------------------------|
      . . . . . . . . . . . . . . . . . . . . . . . .



Chorus
Guitar 1:
D#||-------------------------------------------------------------------------|
A#||-------------------------------------------------------------------------|
F#||--7-7-7-9-9-9-10-10-10-9-9-9-7-7-7-7-7-7-7-9-9-9-10-10-10-9-9-9-7-7-7-7--|
C#||--0-0-0-0-0-0-0--0--0--0-0-0-0-0-0-0-8-8-8-8-8-8-8--8--8--8-8-8-8-8-8-8--|
G#||-------------------------------------------------------------------------|
C#||-------------------------------------------------------------------------|


D#||-----------------------------------------------------------------------------------------|
A#||-----------------------------------------------------------------------------------------|
F#||--9--9--9--10-10-10-12-12-12-10-10-10-9--9--9--9---10-10-10-10----x-9-9-9-9~----9-9-9-9--|
C#||--10-10-10-10-10-10-10-10-10-10-10-10-10-10-10-10--8--8--8--8-----x-7-7-7-7~----7-7-7-7--|
G#||-----------------------------------------------------------------------------------------|
C#||-----------------------------------------------------------------------------------------|


D#||-------------------------------------------------------------------------|
A#||-------------------------------------------------------------------------|
F#||--7-7-7-9-9-9-10-10-10-9-9-9-7-7-7-7-7-7-7-9-9-9-10-10-10-9-9-9-7-7-7-7--|
C#||--0-0-0-0-0-0-0--0--0--0-0-0-0-0-0-0-8-8-8-8-8-8-8--8--8--8-8-8-8-8-8-8--|
G#||-------------------------------------------------------------------------|
C#||-------------------------------------------------------------------------|


D#||------------------------------------------------------------------------------------------|
A#||------------------------------------------------------------------------------------------|
F#||--9--9--9--10-10-10-12-12-12-10-10-10-9--9--9--9---10-10-10-10----x-9-9-9-9----x-9-9-9-9--|
C#||--10-10-10-10-10-10-10-10-10-10-10-10-10-10-10-10--8--8--8--8-----x-7-7-7-7----x-7-7-7-7--|
G#||------------------------------------------------------------------------------------------|
C#||------------------------------------------------------------------------------------------|


Guitar 2:
D#||----------------------------------------------------|
A#||----------------------------------------------------|
F#||----------------------------------------------------|
C#||--0---0-0-0-0---0---0-0------8---8-8-8-8---8---8-8--|
G#||--0---0-0-0-0---0---0-0------8---8-8-8-8---8---8-8--|
C#||--0---0-0-0-0---0---0-0------8---8-8-8-8---8---8-8--|


D#||--------------------------------------------|
A#||--------------------------------------------|
F#||--------------------------------------------|
C#||--10---10-10---10-10----10-10---10-10-10-x--|
G#||--10---10-10---10-10----10-10---10-10-10-x--|
C#||--10---10-10---10-10----10-10---10-10-10-x--|


D#||-----------------------------------|
A#||-----------------------------------|
F#||-----------------------------------|
C#||--8-----8---x-7-----7-----7-7-7-7--|
G#||--8-----8---x-7-----7-----7-7-7-7--|
C#||--8-----8---x-7-----7-----7-7-7-7--|


D#||----------------------------------------------------|
A#||----------------------------------------------------|
F#||----------------------------------------------------|
C#||--0---0-0-0-0---0---0-0------8---8-8-8-8---8---8-8--|
G#||--0---0-0-0-0---0---0-0------8---8-8-8-8---8---8-8--|
C#||--0---0-0-0-0---0---0-0------8---8-8-8-8---8---8-8--|


D#||--------------------------------------------|
A#||--------------------------------------------|
F#||--------------------------------------------|
C#||--10---10-10---10-10----10-10---10-10-10-x--|
G#||--10---10-10---10-10----10-10---10-10-10-x--|
C#||--10---10-10---10-10----10-10---10-10-10-x--|


D#||-----------------------------------|
A#||-----------------------------------|
F#||-----------------------------------|
C#||--8-8-8-8---x-7-7-7-7---x-7-7-7-7--|
G#||--8-8-8-8---x-7-7-7-7---x-7-7-7-7--|
C#||--8-8-8-8---x-7-7-7-7---x-7-7-7-7--|



Pre-Verse
Guitar 1/2:
D#||--------------------------------------------------------------|
A#||--------------------------------------------------------------|
F#||--------------------------------------------------------------|
C#||---------------------------------------8----------------------|
G#||---------------------------------------8----------------------|
C#||--0-----12\-----0-7-10-8---7-5-7-8-----8-----3-5-5-3-5-0-3-5--|


D#||--------------------------------------------------------------|
A#||--------------------------------------------------------------|
F#||--------------------------------------------------------------|
C#||--------12\----------------------------8----x-3---2---3-/-10--|
G#||--------12\----------------------------8----x-3---3---3-/-10--|
C#||--0-----12\-----0-7-10-8---7-5-7-8-----8----x-3---2---3-/-10--|



Verse
Guitar 1:
D#||----------------------------------------------|
A#||----------------------------------------------|
F#||--10~--------10p9~--------9-\7~--------7/9~---|
C#||--10~--------10~----------10\8~--------8/10~--|
G#||----------------------------------------------|
C#||----------------------------------------------|


Guitar 2:
D#||-------------------------------------------------------------------|
A#||-------------------------------------------------------------------|
F#||-------------------------------------------------------------------|
C#||--3-3-3-3-3-3-3-3-5-5-5-5-7-7-7-7-2-2-2-2-2-2-2-2-3-3-3-3-5-5-5-5--|
G#||--5-5-5-5-5-5-5-5-5-5-5-5-5-5-5-3-3-3-3-3-3-3-3-3-3-3-3-3-3-3-3-3--|
C#||-------------------------------------------------------------------|
      . . . . . . . . . . . . . . . . . . . . . . . . . . . . . . . .

D#||-------------------------------------------------------------------|
A#||-------------------------------------------------------------------|
F#||-------------------------------------------------------------------|
C#||--3-3-3-3-3-3-3-3-5-5-5-5-3-3-3-3-2-2-2-2-2-2-2-2-3-3-3-3-5-5-5-5--|
G#||--1-1-1-1-1-1-1-1-1-1-1-1-1-1-1-3-3-3-3-3-3-3-3-3-3-3-3-3-3-3-3-3--|
C#||-------------------------------------------------------------------|
      . . . . . . . . . . . . . . . . . . . . . . . . . . . . . . . .



Pre-Chorus
Guitar 1:
D#||------------------------------------------------------------------|
A#||------------------------------------------------------------------|
F#||---------/5-------------------------------------------------------|
C#||--/7----------5~-----5/7----3~------2---2/5~-----3-3-3-3-3h5-5-5--|
G#||------------------------------------------------------------------|
C#||------------------------------------------------------------------|


Guitar 2:
D#||-------------------------------------------------------------------|
A#||-------------------------------------------------------------------|
F#||-------------------------------------------------------------------|
C#||--3-3-3-3-3-3-3-3-5-5-5-5-7-7-7-7-2-2-2-2-2-2-2-2-3-3-3-3-5-5-5-5--|
G#||--5-5-5-5-5-5-5-5-5-5-5-5-5-5-5-3-3-3-3-3-3-3-3-3-3-3-3-3-3-3-3-3--|
C#||-------------------------------------------------------------------|
      . . . . . . . . . . . . . . . . . . . . . . . . . . . . . . . .

D#||-------------------------------------------------------------------|
A#||-------------------------------------------------------------------|
F#||-------------------------------------------------------------------|
C#||--3-3-3-3-3-3-3-3-5-5-5-5-3-3-3-3-2-2-2-2-2-2-2-2-3-3-3-3-3h5-5-5--|
G#||--1-1-1-1-1-1-1-1-1-1-1-1-1-1-1-3-3-3-3-3-3-3-3-3-3-3-3-3----------|
C#||-------------------------------------------------------------------|
      . . . . . . . . . . . . . . . . . . . . .


Guitar 3 (Dub):
D#||----------------------------------------------|
A#||----------------------------------------------|
F#||--10~--------10p9~--------9-\7~--------7/9~---|
C#||--10~--------10~----------10\8~--------8/10~--|
G#||----------------------------------------------|
C#||----------------------------------------------|



Chorus
Guitar 1:
D#||-------------------------------------------------------------------------|
A#||-------------------------------------------------------------------------|
F#||--7-7-7-9-9-9-10-10-10-9-9-9-7-7-7-7-7-7-7-9-9-9-10-10-10-9-9-9-7-7-7-7--|
C#||--0-0-0-0-0-0-0--0--0--0-0-0-0-0-0-0-8-8-8-8-8-8-8--8--8--8-8-8-8-8-8-8--|
G#||-------------------------------------------------------------------------|
C#||-------------------------------------------------------------------------|


D#||-----------------------------------------------------------------------------------------|
A#||-----------------------------------------------------------------------------------------|
F#||--9--9--9--10-10-10-12-12-12-10-10-10-9--9--9--9---10-10-10-10----x-9-9-9-9~----9-9-9-9--|
C#||--10-10-10-10-10-10-10-10-10-10-10-10-10-10-10-10--8--8--8--8-----x-7-7-7-7~----7-7-7-7--|
G#||-----------------------------------------------------------------------------------------|
C#||-----------------------------------------------------------------------------------------|


D#||-------------------------------------------------------------------------|
A#||-------------------------------------------------------------------------|
F#||--7-7-7-9-9-9-10-10-10-9-9-9-7-7-7-7-7-7-7-9-9-9-10-10-10-9-9-9-7-7-7-7--|
C#||--0-0-0-0-0-0-0--0--0--0-0-0-0-0-0-0-8-8-8-8-8-8-8--8--8--8-8-8-8-8-8-8--|
G#||-------------------------------------------------------------------------|
C#||-------------------------------------------------------------------------|


D#||------------------------------------------------------------------------------------------|
A#||------------------------------------------------------------------------------------------|
F#||--9--9--9--10-10-10-12-12-12-10-10-10-9--9--9--9---10-10-10-10----x-9-9-9-9----x-9-9-9-9--|
C#||--10-10-10-10-10-10-10-10-10-10-10-10-10-10-10-10--8--8--8--8-----x-7-7-7-7----x-7-7-7-7--|
G#||------------------------------------------------------------------------------------------|
C#||------------------------------------------------------------------------------------------|


Guitar 2:
D#||----------------------------------------------------|
A#||----------------------------------------------------|
F#||----------------------------------------------------|
C#||--0---0-0-0-0---0---0-0------8---8-8-8-8---8---8-8--|
G#||--0---0-0-0-0---0---0-0------8---8-8-8-8---8---8-8--|
C#||--0---0-0-0-0---0---0-0------8---8-8-8-8---8---8-8--|


D#||--------------------------------------------|
A#||--------------------------------------------|
F#||--------------------------------------------|
C#||--10---10-10---10-10----10-10---10-10-10-x--|
G#||--10---10-10---10-10----10-10---10-10-10-x--|
C#||--10---10-10---10-10----10-10---10-10-10-x--|


D#||-----------------------------------|
A#||-----------------------------------|
F#||-----------------------------------|
C#||--8-----8---x-7-----7-----7-7-7-7--|
G#||--8-----8---x-7-----7-----7-7-7-7--|
C#||--8-----8---x-7-----7-----7-7-7-7--|


D#||----------------------------------------------------|
A#||----------------------------------------------------|
F#||----------------------------------------------------|
C#||--0---0-0-0-0---0---0-0------8---8-8-8-8---8---8-8--|
G#||--0---0-0-0-0---0---0-0------8---8-8-8-8---8---8-8--|
C#||--0---0-0-0-0---0---0-0------8---8-8-8-8---8---8-8--|


D#||--------------------------------------------|
A#||--------------------------------------------|
F#||--------------------------------------------|
C#||--10---10-10---10-10----10-10---10-10-10-x--|
G#||--10---10-10---10-10----10-10---10-10-10-x--|
C#||--10---10-10---10-10----10-10---10-10-10-x--|


D#||-----------------------------------|
A#||-----------------------------------|
F#||-----------------------------------|
C#||--8-8-8-8---x-7-7-7-7---x-7-7-7-7--|
G#||--8-8-8-8---x-7-7-7-7---x-7-7-7-7--|
C#||--8-8-8-8---x-7-7-7-7---x-7-7-7-7--|



Breakdown
Guitar 1/2:
D#||-------|--------------|--------------|
A#||-------|--------------|--------------|
F#||-------|--------------|--------------|
C#||--0~---|--(feedback)--|--------------|
G#||--0~---|--------------|--\\pick-\\---|
C#||--0~---|--------------|---\\slide\\--|



Interlude
Guitar 1:
D#||-------------------------------------------------------------------------|
A#||-------------------------------------------------------------------------|
F#||--7-7-7-9-9-9-10-10-10-9-9-9-7-7-7-7-7-7-7-9-9-9-10-10-10-9-9-9-7-7-7-7--|
C#||--0-0-0-0-0-0-0--0--0--0-0-0-0-0-0-0-8-8-8-8-8-8-8--8--8--8-8-8-8-8-8-8--|
G#||-------------------------------------------------------------------------|
C#||-------------------------------------------------------------------------|
      . . . . . . .  .  .  . . . . . . . . . . . . . .  .  .  . . . . . . .

D#||--------------------------------------------------------------------------|
A#||--------------------------------------------------------------------------|
F#||--9--9--9--10-10-10-12-12-12-10-10-10-9--9--9--9---10-10-10-10-10-10-9-9--|
C#||--10-10-10-10-10-10-10-10-10-10-10-10-10-10-10-10--8--8--8--8--8--8--7-7--|
G#||--------------------------------------------------------------------------|
C#||--------------------------------------------------------------------------|
      .  .  .  .  .  .  .  .  .  .  .  .  .  .  .  .   .  .  .  .  .  .  . .


Guitar 1/2:
D#||-------------------|
A#||-------------------|
F#||--9-9-9-9-9-9-9-9--|
C#||--7-7-7-7-7-7-7-7--|
G#||-------------------|
C#||-------------------|
      . .

D#||-------------------------------------------------------------------------|
A#||-------------------------------------------------------------------------|
F#||--7-7-7-9-9-9-10-10-10-9-9-9-7-7-7-7-7-7-7-9-9-9-10-10-10-9-9-9-7-7-7-7--|
C#||--0-0-0-0-0-0-0--0--0--0-0-0-0-0-0-0-8-8-8-8-8-8-8--8--8--8-8-8-8-8-8-8--|
G#||-------------------------------------------------------------------------|
C#||-------------------------------------------------------------------------|
      . . . . . . .  .  .  . . . . . . . . . . . . . .  .  .  . . . . . . .

D#||-------------------------------------------------------------------------|
A#||-------------------------------------------------------------------------|
F#||--9--9--9--10-10-10-12-12-12-10-10-10-9--9--9--9---10-10-10-10----x-9~---|
C#||--10-10-10-10-10-10-10-10-10-10-10-10-10-10-10-10--8--8--8--8-----x-8~---|
G#||-------------------------------------------------------------------------|
C#||-------------------------------------------------------------------------|
      .  .  .  .  .  .  .  .  .  .  .  .  .  .  .  .


D#||--------------|
A#||--------------|
F#||--------------|
C#||--------------|
G#||--\\pick-\\---|
C#||---\\slide\\--|



Chorus
Guitar 1:
D#||-------------------------------------------------------------------------|
A#||-------------------------------------------------------------------------|
F#||--7-7-7-9-9-9-10-10-10-9-9-9-7-7-7-7-7-7-7-9-9-9-10-10-10-9-9-9-7-7-7-7--|
C#||--0-0-0-0-0-0-0--0--0--0-0-0-0-0-0-0-8-8-8-8-8-8-8--8--8--8-8-8-8-8-8-8--|
G#||-------------------------------------------------------------------------|
C#||-------------------------------------------------------------------------|


D#||-----------------------------------------------------------------------------------------|
A#||-----------------------------------------------------------------------------------------|
F#||--9--9--9--10-10-10-12-12-12-10-10-10-9--9--9--9---10-10-10-10----x-9-9-9-9~----9-9-9-9--|
C#||--10-10-10-10-10-10-10-10-10-10-10-10-10-10-10-10--8--8--8--8-----x-7-7-7-7~----7-7-7-7--|
G#||-----------------------------------------------------------------------------------------|
C#||-----------------------------------------------------------------------------------------|


D#||-------------------------------------------------------------------------|
A#||-------------------------------------------------------------------------|
F#||--7-7-7-9-9-9-10-10-10-9-9-9-7-7-7-7-7-7-7-9-9-9-10-10-10-9-9-9-7-7-7-7--|
C#||--0-0-0-0-0-0-0--0--0--0-0-0-0-0-0-0-8-8-8-8-8-8-8--8--8--8-8-8-8-8-8-8--|
G#||-------------------------------------------------------------------------|
C#||-------------------------------------------------------------------------|


D#||------------------------------------------------------------------------------------------|
A#||------------------------------------------------------------------------------------------|
F#||--9--9--9--10-10-10-12-12-12-10-10-10-9--9--9--9---10-10-10-10----x-9-9-9-9----x-9-9-9-9--|
C#||--10-10-10-10-10-10-10-10-10-10-10-10-10-10-10-10--8--8--8--8-----x-7-7-7-7----x-7-7-7-7--|
G#||------------------------------------------------------------------------------------------|
C#||------------------------------------------------------------------------------------------|


Guitar 2:
D#||----------------------------------------------------|
A#||----------------------------------------------------|
F#||----------------------------------------------------|
C#||--0---0-0-0-0---0---0-0------8---8-8-8-8---8---8-8--|
G#||--0---0-0-0-0---0---0-0------8---8-8-8-8---8---8-8--|
C#||--0---0-0-0-0---0---0-0------8---8-8-8-8---8---8-8--|


D#||--------------------------------------------|
A#||--------------------------------------------|
F#||--------------------------------------------|
C#||--10---10-10---10-10----10-10---10-10-10-x--|
G#||--10---10-10---10-10----10-10---10-10-10-x--|
C#||--10---10-10---10-10----10-10---10-10-10-x--|


D#||-----------------------------------|
A#||-----------------------------------|
F#||-----------------------------------|
C#||--8-----8---x-7-----7-----7-7-7-7--|
G#||--8-----8---x-7-----7-----7-7-7-7--|
C#||--8-----8---x-7-----7-----7-7-7-7--|


D#||----------------------------------------------------|
A#||----------------------------------------------------|
F#||----------------------------------------------------|
C#||--0---0-0-0-0---0---0-0------8---8-8-8-8---8---8-8--|
G#||--0---0-0-0-0---0---0-0------8---8-8-8-8---8---8-8--|
C#||--0---0-0-0-0---0---0-0------8---8-8-8-8---8---8-8--|


D#||--------------------------------------------|
A#||--------------------------------------------|
F#||--------------------------------------------|
C#||--10---10-10---10-10----10-10---10-10-10-x--|
G#||--10---10-10---10-10----10-10---10-10-10-x--|
C#||--10---10-10---10-10----10-10---10-10-10-x--|


D#||-----------------------------------|
A#||-----------------------------------|
F#||-----------------------------------|
C#||--8-8-8-8---x-7-7-7-7---x-7-7-7-7--|
G#||--8-8-8-8---x-7-7-7-7---x-7-7-7-7--|
C#||--8-8-8-8---x-7-7-7-7---x-7-7-7-7--|



Outro
Guitar 1/2:
D#||--------------------------------------------------------------|
A#||--------------------------------------------------------------|
F#||--------------------------------------------------------------|
C#||---------------------------------------8----------------------|
G#||---------------------------------------8----------------------|
C#||--0-----12\-----0-7-10-8---7-5-7-8-----8-----3-5-5-3-5-0-3-5--|


D#||--------------------------------------------------------------|
A#||--------------------------------------------------------------|
F#||--------------------------------------------------------------|
C#||--------12\----------------------------8----x-3---2---3-/-10--|
G#||--------12\----------------------------8----x-3---3---3-/-10--|
C#||--0-----12\-----0-7-10-8---7-5-7-8-----8----x-3---2---3-/-10--|


D#||-------------|
A#||-------------|
F#||-------------|
C#||--12------0--|
G#||--12------0--|
C#||--12------0--|





____________________________________________________________________________________________________

                                        T09.   DESERT NIGHTS
____________________________________________________________________________________________________





Tuning: Drop C# (C# G# C# F# A# D#)


Intro
Guitar 1:
D#||--0-----------------------------|
A#||----1---------------------------|
F#||--------0~----------------------|
C#||------2-3~----------------------|
G#||--------------------------------|
C#||--------------------------------|


Guitar 2:
D#||----------------------0---------|
A#||------------------------1-------|
F#||----------------------------0~--|
C#||--------------------------2-3~--|
G#||--------------------------------|
C#||--------------------------------|



Verse
Guitar 1/2:
D#||--0-----------------------------------|--0-----------------------------------|
A#||----1---------------------------------|----1---------------------------------|
F#||--------0~---0-x-x-5-----4-----4h5-4--|--------0~---0-0-0--------------------|
C#||------2-3~---3-x-x-7-----7-7-7-7---7--|------2-3~---3-3-0-3----x-3----x-3-3--|
G#||---------------------7-7--------------|-------------------3----x-3----x-3-3--|
C#||--------------------------------------|-------------------3----x-3----x-3-3--|
                         . .   . .

D#||--0-----------------------------------|--0-----------------------------------|
A#||----1---------------------------------|----1---------------------------------|
F#||--------0~---0-x-x-5-----4-----4h5-4--|--------0~---0-0-0--------------------|
C#||------2-3~---3-x-x-7-----7-7-7-7---7--|------2-3~---3-3-0-3----x-3----x-3----|
G#||---------------------7-7--------------|-------------------3----x-3----x-3----|
C#||--------------------------------------|-------------------3----x-3----x-3----|
                         . .   . .



Pre-Chorus
Guitar 1/2:
D#||---------------------------------------------------|
A#||---------------------------------------------------|
F#||--2-----0-----4-----0-----5-----------5------------|
C#||--3-3-3-3-3-3-5-5-5-5-5-5-7-7-7-7-7-7-7-7-7-7-7-7--|
G#||--3-3-3-3-3-3-5-5-5-5-5-5-7-7-7-7-7-7-7-7-7-7-7-7--|
C#||--3-3-3-3-3-3-5-5-5-5-5-5-7-7-7-7-7-7-7-7-7-7-7-7--|
        . .   . .   . .   . .   . . . . .   . . . . .

D#||---------------------------------------------------|
A#||---------------------------------------------------|
F#||--2-----0-----4-----0-----5-----------5------------|
C#||--3-3-3-3-3-3-5-5-5-5-5-5-7-7-7-7-7-7-7-7-7-7-7-7--|
G#||--3-3-3-3-3-3-5-5-5-5-5-5-7-7-7-7-7-7-7-7-7-7-7-7--|
C#||--3-3-3-3-3-3-5-5-5-5-5-5-7-7-7-7-7-7-7-7-7-7-7-7--|
        . .   . .   . .   . .   . . . . .   . . .



Chorus
Guitar 1:
D#||-----------------------------------------------------------------|
A#||-----------------------------------------------------------------|
F#||--5---5-5---5-9---9-9-9-10-9-7-9-7-----5-----9---9-9-9-12--------|
C#||--x---x-x---x-x---x-x-x-x--x-x-x-x-----x-----x---x-x-x-x--x-x-x--|
G#||--3---3-3---3-7---7-7-7-8--7-5-7-5-----3-----7---7-7-7-10-x-x-x--|
C#||----------------------------------------------------------x-x-x--|


D#||------------------------------------------------|
A#||------------------------------------------------|
F#||--5---5-5---5-9---9-9-9-10-9-7-9-7---7-5---5-4--|
C#||--x---x-x---x-x---x-x-x-x--x-x-x-x---x-x---x-x--|
G#||--3---3-3---3-7---7-7-7-8--7-5-7-5---5-3---3-2--|
C#||------------------------------------------------|


Guitar 2:
D#||-----------------------------------------------------------------|
A#||-----------------------------------------------------------------|
F#||--5---5-5---5----------------------------------------------------|
C#||--5---5-5---5-3---3-3---3-3-3-3---7---7-7---7-5---5-5---5-3-2-3--|
G#||--3---3-3---3-3---3-3---3-3-3-3---7---7-7---7-5---5-5---5-3-2-3--|
C#||--------------3---3-3---3-3-3-3---7---7-7---7-5---5-5---5-3-2-3--|
                                                              . . .

D#||--------------------------------------------------|
A#||--------------------------------------------------|
F#||--5---5-5---5-------------------------------------|
C#||--5---5-5---5-3---3-3---3-3-3-3---7---7-7---7-5\--|
G#||--3---3-3---3-3---3-3---3-3-3-3---7---7-7---7-5\--|
C#||--------------3---3-3---3-3-3-3---7---7-7---7-5\--|



Verse
Guitar 1/2:
D#||--0-----------------------------------|--0-----------------------------------|
A#||----1---------------------------------|----1---------------------------------|
F#||--------0~---0-x-x-5-----4-----4h5-4--|--------0~---0-0-0--------------------|
C#||------2-3~---3-x-x-7-----7-7-7-7---7--|------2-3~---3-3-0-3----x-3----x-3-3--|
G#||---------------------7-7--------------|-------------------3----x-3----x-3-3--|
C#||--------------------------------------|-------------------3----x-3----x-3-3--|
                         . .   . .

D#||--0-----------------------------------|--0-----------------------------------|
A#||----1---------------------------------|----1---------------------------------|
F#||--------0~---0-x-x-5-----4-----4h5-4--|--------0~---0-0-0--------------------|
C#||------2-3~---3-x-x-7-----7-7-7-7---7--|------2-3~---3-3-0-3----x-3----x-3----|
G#||---------------------7-7--------------|-------------------3----x-3----x-3----|
C#||--------------------------------------|-------------------3----x-3----x-3----|
                         . .   . .



Pre-Chorus
Guitar 1:
D#||------------------------------|
A#||------------------------------|
F#||--2~----0~----4~----0~----5~--|
C#||--3~----------5~----------7~--|
G#||--3~----------5~----------7~--|
C#||--3~----------5~----------7~--|


Guitar 2:
D#||---------------------------------------------------|
A#||---------------------------------------------------|
F#||--------------------------------------5-5-5-5-5-5--|
C#||--3-3-3-3-3-3-5-5-5-5-5-5-7-7-7-7-7-7-7-7-7-7-7-7--|
G#||--3-3-3-3-3-3-5-5-5-5-5-5-7-7-7-7-7-7-7-7-7-7-7-7--|
C#||--3-3-3-3-3-3-5-5-5-5-5-5-7-7-7-7-7-7-7-7-7-7-7-7--|
      . . . . . . . . . . . . . . . . . .



Chorus
Guitar 1:
D#||-----------------------------------------------------------------|
A#||-----------------------------------------------------------------|
F#||--5---5-5---5-9---9-9-9-10-9-7-9-7-----5-----9---9-9-9-12--------|
C#||--x---x-x---x-x---x-x-x-x--x-x-x-x-----x-----x---x-x-x-x--x-x-x--|
G#||--3---3-3---3-7---7-7-7-8--7-5-7-5-----3-----7---7-7-7-10-x-x-x--|
C#||----------------------------------------------------------x-x-x--|


D#||--------------------------------------------------------------------|
A#||--------------------------------------------------------------------|
F#||--5---5-5---5-9---9-9-9-10-9-7-9-7---7-5---5-9---9-9-9-14-12-17-16--|
C#||--x---x-x---x-x---x-x-x-x--x-x-x-x---x-x---x-x---x-x-x-x--x--x--x---|
G#||--3---3-3---3-7---7-7-7-8--7-5-7-5---5-3---3-7---7-7-7-12-10-15-14--|
C#||--------------------------------------------------------------------|


D#||--------------------------------------------------------------------------------|
A#||--------------------------------------------------------------------------------|
F#||--17---17-17-17/19-16---16-16-16-17-16-14-16-14---14-12---12-7---7-7-7----------|
C#||--x----x--x--x-/x--x----x--x--x--x--x--x--x--x----x--x----x--x---x-x-x-5-3-2-3--|
G#||--15---15-15-15/17-14---14-14-14-15-14-12-14-12---12-10---10-5---5-5-5-5-3-2-3--|
C#||-----------------------------------------------------------------------5-3-2-3--|
                                                                           . . . .

D#||------------------------------------------------------|
A#||------------------------------------------------------|
F#||--5---5-7---7-9---9-9-9-10-9-7-9-16---16-16---16-17\--|
C#||--x---x-x---x-x---x-x-x-x--x-x-x-x----x--x----x--x-\--|
G#||--3---3-5---5-7---7-7-7-8--7-5-7-14---14-14---14-15\--|
C#||------------------------------------------------------|


Guitar 2:
D#||-----------------------------------------------------------------|
A#||-----------------------------------------------------------------|
F#||--5---5-5---5----------------------------------------------------|
C#||--5---5-5---5-3---3-3---3-3-3-3---7---7-7---7-5---5-5---5-3-2-3--|
G#||--3---3-3---3-3---3-3---3-3-3-3---7---7-7---7-5---5-5---5-3-2-3--|
C#||--------------3---3-3---3-3-3-3---7---7-7---7-5---5-5---5-3-2-3--|
                                                              . . .

D#||-----------------------------------------------------------------|
A#||-----------------------------------------------------------------|
F#||--5---5-5---5----------------------------------------------------|
C#||--5---5-5---5-3---3-3---3-3-3-3---7---7-7---7-5---5-5---5-5-5-5--|
G#||--3---3-3---3-3---3-3---3-3-3-3---7---7-7---7-5---5-5---5-5-5-5--|
C#||--------------3---3-3---3-3-3-3---7---7-7---7-5---5-5---5-5-5-5--|


D#||-----------------------------------------------------------------|
A#||-----------------------------------------------------------------|
F#||--5---5-5---5----------------------------------------------------|
C#||--5---5-5---5-3---3-3---3-3-3-3---7---7-7---7-5---5-5---5-3-2-3--|
G#||--3---3-3---3-3---3-3---3-3-3-3---7---7-7---7-5---5-5---5-3-2-3--|
C#||--------------3---3-3---3-3-3-3---7---7-7---7-5---5-5---5-3-2-3--|
                                                              . . .

D#||--------------------------------------------------|
A#||--------------------------------------------------|
F#||--5---5-5---5-------------------------------------|
C#||--5---5-5---5-3---3-3---3-3-3-3---7---7-7---7-5\--|
G#||--3---3-3---3-3---3-3---3-3-3-3---7---7-7---7-5\--|
C#||--------------3---3-3---3-3-3-3---7---7-7---7-5\--|



Bridge
Guitar 1:
D#||--0----------|
A#||----1-0---0--|
F#||------2h3-0--|
C#||-------------|
G#||-------------|
C#||-------------|


Guitar 1/2:
D#||--------------------|
A#||--------------------|
F#||--------------------|
C#||--3----3----3----3--|
G#||--3----3----3----3--|
C#||--3----3----3----3--|


Guitar 2:
D#||--0----------|
A#||----1-0---0--|
F#||------2h3-0--|
C#||-------------|
G#||-------------|
C#||-------------|


Guitar 1/2:
D#||----------|
A#||----------|
F#||----------|
C#||--3----3--|
G#||--3----3--|
C#||--3----3--|


Guitar 1:
D#||--0----------|
A#||----1-0---0--|
F#||------2h3-0--|
C#||-------------|
G#||-------------|
C#||-------------|


Guitar 1/2:
D#||----------------------0----------------------------|
A#||------------------------1-0---0--------------------|
F#||--------------------------2h3-0--------------------|
C#||--3----3----3----3---------------3----3----3----3--|
G#||--3----3----3----3---------------3----3----3----3--|
C#||--3----3----3----3---------------3----3----3----3--|


D#||------------------------------------------------|
A#||------------------------------------------------|
F#||--2----0----4----0----5----5----5-5----5-5-5-5--|
C#||--3---------5---------7----7----7-7----7-7-7-7--| x2
G#||--3---------5---------7----7----7-7----7-7-7-7--|
C#||--3---------5---------7----7----7-7----7-7-7-7--|



Guitar 1:
D#||---------------------------------------------------|
A#||---------------------------------------------------|
F#||--5-5-5-5-----5-5-5-5-----7-7-7-7-----7-7-7-7------|
C#||------------7-----------7-----------7-----------7--|
G#||---------------------------------------------------|
C#||---------------------------------------------------|


D#||-----------------------------------------------|
A#||-----------------------------------------------|
F#||--9-9-9-9---9-------------9--10--12--\7---5~---|
C#||--------------7-7-7-7---7----------------------|
G#||-----------------------------------------------|
C#||-----------------------------------------------|


Guitar 2:
D#||---------------------------------------------------|
A#||---------------------------------------------------|
F#||---------------------------------------------------|
C#||--3---3-3-3-3-3---3-3-3-3-5---5-5-5-5-5---5-5-5-5--|
G#||--3---3-3-3-3-3---3-3-3-3-5---5-5-5-5-5---5-5-5-5--|
C#||--3---3-3-3-3-3---3-3-3-3-5---5-5-5-5-5---5-5-5-5--|


D#||---------------------------------------------------|
A#||---------------------------------------------------|
F#||--5-5-5-5-----0-0-0-0-----5-5-5-5-----5-5-5-5-5-5--|
C#||--7-7-7-7---x-7-7-7-7---x-7-7-7-7---x-7-7-7-7-7-7--|
G#||--7-7-7-7---x-7-7-7-7---x-7-7-7-7---x-7-7-7-7-7-7--|
C#||--7-7-7-7---x-7-7-7-7---x-7-7-7-7---x-7-7-7-7-7-7--|



Interlude
Guitar 1:
D#||-----------------------------------------------|
A#||-----------------------------------------------|
F#||--5~----------9~--------10p9-7\5--7----5----9--|
C#||--x-----------x-------------------x----x----x--|
G#||--3~----------7~------------------5----3----7--|
C#||-----------------------------------------------|


D#||-----------------------------------------------|
A#||-----------------------------------------------|
F#||--4~---/5-----7~--------10\9-7/9---9~--5---4~--|
C#||--x-----------x~--------x-\x-x/x---7~------5~--|
G#||--2~----------5~--------8-\7-5/7---7~------5~--|
C#||-----------------------------------------------|


Guitar 2:
D#||----------------------------------------|
A#||----------------------------------------|
F#||--5-----5-------------------------------|
C#||--5-----5-----3~--------7-----7-----5~--| x2
G#||--3-----3-----3~--------7-----7-----5~--|
C#||--------------3~--------7-----7-----5~--|



Chorus / Outro
Guitar 1:
D#||-----------------------------------------------------------------|
A#||-----------------------------------------------------------------|
F#||--5---5-5---5-9---9-9-9-10-9-7-9-7-----5-----9---9-9-9-12--------|
C#||--x---x-x---x-x---x-x-x-x--x-x-x-x-----x-----x---x-x-x-x--x-x-x--|
G#||--3---3-3---3-7---7-7-7-8--7-5-7-5-----3-----7---7-7-7-10-x-x-x--|
C#||----------------------------------------------------------x-x-x--|


D#||--------------------------------------------------------------------|
A#||--------------------------------------------------------------------|
F#||--5---5-5---5-9---9-9-9-10-9-7-9-7---7-5---5-9---9-9-9-14-12-17-16--|
C#||--x---x-x---x-x---x-x-x-x--x-x-x-x---x-x---x-x---x-x-x-x--x--x--x---|
G#||--3---3-3---3-7---7-7-7-8--7-5-7-5---5-3---3-7---7-7-7-12-10-15-14--|
C#||--------------------------------------------------------------------|


D#||--------------------------------------------------------------------------------|
A#||--------------------------------------------------------------------------------|
F#||--17---17-17-17/19-16---16-16-16-17-16-14-16-14---14-12---12-7---7-7-7----------|
C#||--x----x--x--x-/x--x----x--x--x--x--x--x--x--x----x--x----x--x---x-x-x-5-3-2-3--|
G#||--15---15-15-15/17-14---14-14-14-15-14-12-14-12---12-10---10-5---5-5-5-5-3-2-3--|
C#||-----------------------------------------------------------------------5-3-2-3--|
                                                                           . . . .

D#||----------------------------------------------------|
A#||----------------------------------------------------|
F#||--5---5-7---7-9---9-9-9-10-9-7-9-16-----16-----16~--|
C#||--x---x-x---x-x---x-x-x-x--x-x-x-x------x------x----|
G#||--3---3-5---5-7---7-7-7-8--7-5-7-14-----14-----14~--|
C#||----------------------------------------------------|


D#||-------|
A#||-------|
F#||--17~--|
C#||--x----|
G#||--15~--|
C#||-------|


Guitar 2:
D#||-----------------------------------------------------------------|
A#||-----------------------------------------------------------------|
F#||--5---5-5---5----------------------------------------------------|
C#||--5---5-5---5-3---3-3---3-3-3-3---7---7-7---7-5---5-5---5-3-2-3--|
G#||--3---3-3---3-3---3-3---3-3-3-3---7---7-7---7-5---5-5---5-3-2-3--|
C#||--------------3---3-3---3-3-3-3---7---7-7---7-5---5-5---5-3-2-3--|
                                                              . . .

D#||-----------------------------------------------------------------|
A#||-----------------------------------------------------------------|
F#||--5---5-5---5----------------------------------------------------|
C#||--5---5-5---5-3---3-3---3-3-3-3---7---7-7---7-5---5-5---5-5-5-5--|
G#||--3---3-3---3-3---3-3---3-3-3-3---7---7-7---7-5---5-5---5-5-5-5--|
C#||--------------3---3-3---3-3-3-3---7---7-7---7-5---5-5---5-5-5-5--|


D#||-----------------------------------------------------------------|
A#||-----------------------------------------------------------------|
F#||--5---5-5---5----------------------------------------------------|
C#||--5---5-5---5-3---3-3---3-3-3-3---7---7-7---7-5---5-5---5-3-2-3--|
G#||--3---3-3---3-3---3-3---3-3-3-3---7---7-7---7-5---5-5---5-3-2-3--|
C#||--------------3---3-3---3-3-3-3---7---7-7---7-5---5-5---5-3-2-3--|
                                                              . . .

D#||--------------------------------------------------------|
A#||--------------------------------------------------------|
F#||--5---5-5---5-------------------------------------------|
C#||--5---5-5---5-3---3-3---3-3-3-3---7-----7-----5-----7~--|
G#||--3---3-3---3-3---3-3---3-3-3-3---7-----7-----5-----7~--|
C#||--------------3---3-3---3-3-3-3---7-----7-----5-----7~--|





____________________________________________________________________________________________________

                                         T10.   IN THE DARK
____________________________________________________________________________________________________





Tuning: Drop C# (C# G# C# F# A# D#)


Intro
Guitar 1:
D#||---------------------------------------------------------------|
A#||---------------------------------------------------------------|
F#||------7--------------7--------------7--------------7-----------|
C#||--5-------1-0--4-5-------1-0--4-5-------1-0--4-5-------1-0--4--|
G#||--5-------1-0--4-5-------1-0--4-5-------1-0--4-5-------1-0--4--|
C#||--5-------1-0--4-5-------1-0--4-5-------1-0--4-5-------1-0--4--|


D#||----------------------------------------------------------------------|
A#||----------------------------------------------------------------------|
F#||------3--------------3--------------3--------------3------------------|
C#||--1-------1-0--4-1-------1-0--4-1-------1-0--4-1-------1-x-x-x-x-x-x--|
G#||--1-------1-0--4-1-------1-0--4-1-------1-0--4-1-------1-x-x-x-x-x-x--|
C#||--1-------1-0--4-1-------1-0--4-1-------1-0--4-1-------1-x-x-x-x-x-x--|


Guitar 2:
D#||---------------------------------------------------------------|
A#||---------------------------------------------------------------|
F#||---------------------------------------------------------------|
C#||--5---8---1-0--4-5---8---1-0--4-5---8---1-0--4-5---8---1-0--4--|
G#||--5-------1-0--4-5-------1-0--4-5-------1-0--4-5-------1-0--4--|
C#||--5-------1-0--4-5-------1-0--4-5-------1-0--4-5-------1-0--4--|


D#||----------------------------------------------------------------------|
A#||----------------------------------------------------------------------|
F#||----------------------------------------------------------------------|
C#||--1---5---1-0--4-1---5---1-0--4-1---5---1-0--4-1---5---1-x-x-x-x-x-x--|
G#||--1-------1-0--4-1-------1-0--4-1-------1-0--4-1-------1-x-x-x-x-x-x--|
C#||--1-------1-0--4-1-------1-0--4-1-------1-0--4-1-------1-x-x-x-x-x-x--|



Verse
Guitar 1/2:
D#||--------------------------------------------------|
A#||--------------------------------------------------|
F#||--------------------------------------------------|
C#||------8-----8-------------8-----8------12-----12--|
G#||--------------------------------------------------|
C#||--555-----5-----------555-----5----888------8-----|
      ...     .           ...     .    ...      .

D#||-------------------------------------------------------|
A#||--------------------------------8-----8----------------|
F#||-------------------------------------------------------|
C#||---------13------13--------------------------7--5p4h5--|
G#||----------------------------666-----6------------------|
C#||--101010------10-------------------------444-----------|
      . . .       .             ...     .    ...

D#||--------------------------------------------------|
A#||--------------------------------------------------|
F#||--------------------------------------------------|
C#||------8-----8-------------8-----8------12-----12--|
G#||--------------------------------------------------|
C#||--555-----5-----------555-----5----888------8-----|
      ...     .           ...     .    ...      .

D#||---------------------------------------------|
A#||---------------------------------------------|
F#||---------------------------------------------|
C#||---------13------13---------5-5-5-5-7-7-7-7--|
G#||----------------------------6-6-6-6-9-9-9-9--|
C#||--101010------10-----------------------------|
      . . .       .             . .



Chorus
Guitar 1:
D#||---------------------------------------------------|----------------------------------------------------|
A#||---------------------------------------------------|----------------------------------------------------|
F#||--12-12-14-14-15-15-12-14-14-15-15-10-10-10-10-10--|--12-12-14-14-15-15-12-14-14-15-15-10-20-20-20-19~--|
C#||--x--x--x--x--x--x--x--x--x--x--x--x--x--x--x--x---|--x--x--x--x--x--x--x--x--x--x--x--x--x--x--x--x----|
G#||--10-10-12-12-13-13-10-12-12-13-13-8--8--8--8--8---|--10-10-12-12-13-13-10-12-12-13-13-13-18-18-18-17~--|
C#||---------------------------------------------------|----------------------------------------------------|


D#||---------------------------------------------|----------------------------------------------------|
A#||---------------------------------------------|----------------------------------------------------|
F#||--14-14-15-15-12-14-14-15-15-10-10-10-10-10--|--12-12-14-14-15-15-12-14-14-15-15-10-20-20-20-19~--|
C#||--x--x--x--x--x--x--x--x--x--x--x--x--x--x---|--x--x--x--x--x--x--x--x--x--x--x--x--x--x--x--x----|
G#||--12-12-13-13-10-12-12-13-13-8--8--8--8--8---|--10-10-12-12-13-13-10-12-12-13-13-13-18-18-18-17~--|
C#||---------------------------------------------|----------------------------------------------------|


D#||---------------------------------------------|---------------------------------------------------|
A#||---------------------------------------------|---------------------------------------------------|
F#||--14-14-15-15-12-14-14-15-15-15-15\10-10-10--|--10/12-12-14-14-15-15-15-17-17-17-17-15-15-15-15--|
C#||--x--x--x--x--x--x--x--x--x--x--x-\x--x--x---|--x-/x--x--x--x--x--x--x--x--x--x--x--x--x--x--x---|
G#||--12-12-13-13-10-12-12-13-13-13-13\8--8--8---|--8-/10-10-12-12-13-13-13-15-15-15-15-13-13-13-13--|
C#||---------------------------------------------|---------------------------------------------------|


D#||---------------------------------------------------|---------------------------------------------------|
A#||---------------------------------------------------|---------------------------------------------------|
F#||--19-19-19-19-19-19-19-17-15-15-15-15-20-20-20-20--|--19-19-19-19-19-19-19-17-15-15-15-15-15-15-17-17--|
C#||--x--x--x--x--x--x--x--x--x--x--x--x--x--x--x--x---|--x--x--x--x--x--x--x--x--x--x--x--x--x--x--x--x---|
G#||--17-17-17-17-17-17-17-15-13-13-13-13-18-18-18-18--|--17-17-17-17-17-17-17-15-13-13-13-13-13-13-15-15--|
C#||---------------------------------------------------|---------------------------------------------------|


Guitar 2:
D#||-------------------------------------------------------------------|
A#||-------------------------------------------------------------------|
F#||-------------------------------------------------------------------|
C#||--1-1-1-1-1-1-1-1-1-1-1-1-1-1-1-1-1-1-1-1-1-1-1-1-1-1-1-1-0-0-0-0--|
G#||--1-1-1-1-1-1-1-1-1-1-1-1-1-1-1-1-1-1-1-1-1-1-1-1-1-1-1-1-0-0-0-0--|
C#||--1-1-1-1-1-1-1-1-1-1-1-1-1-1-1-1-1-1-1-1-1-1-1-1-1-1-1-1-0-0-0-0--|


D#||-------------------------------------------------------------------|
A#||-------------------------------------------------------------------|
F#||----------------------------------------------------------3-3-3-3--|
C#||--5-5-5-5-5-5-5-5-5-5-5-5-5-5-5-5-5-5-5-5-5-5-5-5-5-5-5-5-3-3-3-3--|
G#||--5-5-5-5-5-5-5-5-5-5-5-5-5-5-5-5-5-5-5-5-5-5-5-5-5-5-5-5-1-1-1-1--|
C#||--5-5-5-5-5-5-5-5-5-5-5-5-5-5-5-5-5-5-5-5-5-5-5-5-5-5-5-5----------|


D#||-------------------------------------------------------------------|
A#||-------------------------------------------------------------------|
F#||-------------------------------------------------------------------|
C#||--1-1-1-1-1-1-1-1-1-1-1-1-1-1-1-1-1-1-1-1-1-1-1-1-4-4-4-4-4-4-4-4--|
G#||--1-1-1-1-1-1-1-1-1-1-1-1-1-1-1-1-1-1-1-1-1-1-1-1-4-4-4-4-4-4-4-4--|
C#||--1-1-1-1-1-1-1-1-1-1-1-1-1-1-1-1-1-1-1-1-1-1-1-1-4-4-4-4-4-4-4-4--|


D#||-------------------------------------------------------------------|
A#||-------------------------------------------------------------------|
F#||----------------------------------------------------------3-3-3-3--|
C#||--5-5-5-5-5-5-5-5-5-5-5-5-5-5-5-5-5-5-5-5-5-5-5-5-5-5-5-5-3-3-3-3--|
G#||--5-5-5-5-5-5-5-5-5-5-5-5-5-5-5-5-5-5-5-5-5-5-5-5-5-5-5-5-1-1-1-1--|
C#||--5-5-5-5-5-5-5-5-5-5-5-5-5-5-5-5-5-5-5-5-5-5-5-5-5-5-5-5----------|



Pre-Verse
Guitar 1:
D#||---------------------------------------------------------------|
A#||---------------------------------------------------------------|
F#||------7--------------7--------------7--------------7-----------|
C#||--5-------1-0--4-5-------1-0--4-5-------1-0--4-5-------1-0--4--|
G#||--5-------1-0--4-5-------1-0--4-5-------1-0--4-5-------1-0--4--|
C#||--5-------1-0--4-5-------1-0--4-5-------1-0--4-5-------1-0--4--|


Guitar 2:
D#||---------------------------------------------------------------|
A#||---------------------------------------------------------------|
F#||---------------------------------------------------------------|
C#||--5---8---1-0--4-5---8---1-0--4-5---8---1-0--4-5---8---1-0--4--|
G#||--5-------1-0--4-5-------1-0--4-5-------1-0--4-5-------1-0--4--|
C#||--5-------1-0--4-5-------1-0--4-5-------1-0--4-5-------1-0--4--|



Verse
Guitar 1:
D#||------------------------------------------------|
A#||------------------------------------------------|
F#||------------------------------------------------|
C#||------5-----5-------------5-----5------8-----8--|
G#||------------------------------------------------|
C#||--555-----5-----------555-----5----888-----8----|
      ...     .           ...     .    ...     .

D#||-------------------------------------------------------|
A#||-------------------------------------------------------|
F#||--------------------------------8-----8----------------|
C#||---------10------10--------------------------7--5p4h5--|
G#||----------------------------666-----6------------------|
C#||--101010------10-------------------------444-----------|
      . . .       .             ...     .    ...

D#||-----------------------------------------------------|
A#||-----------------------------------------------------|
F#||-----------------------------------------------------|
C#||------5-----5h7-------------5-----5h7----8-----8h10--|
G#||-----------------------------------------------------|
C#||--555-----5-----55555555555-----5----888-----8-------|
      ...     .     ...........     .    ...     .

D#||------------------------------------------------------------|
A#||------------------------------------------------------------|
F#||------------------------------------------------------------|
C#||---------10------10h12----------10-10-10-10h12--------------|
G#||-----------------------------------------------12-12-12-13--|
C#||--101010------10--------------------------------------------|
      . . .       .


Guitar 2:
D#||--------------------------------------------------|
A#||--------------------------------------------------|
F#||--------------------------------------------------|
C#||------8-----8-------------8-----8------12-----12--|
G#||--------------------------------------------------|
C#||--555-----5-----------555-----5----888------8-----|
      ...     .           ...     .    ...      .

D#||-------------------------------------------------------|
A#||--------------------------------8-----8----------------|
F#||-------------------------------------------------------|
C#||---------13------13--------------------------7--5p4h5--|
G#||----------------------------666-----6------------------|
C#||--101010------10-------------------------444-----------|
      . . .       .             ...     .    ...

D#||--------------------------------------------------------|
A#||--------------------------------------------------------|
F#||--------------------------------------------------------|
C#||------8-----8h10----------8-----8h10------12-----12h13--|
G#||--------------------------------------------------------|
C#||--555-----5-----------555-----5-------888------8--------|
      ...     .           ...     .       ...      .

D#||----------------------------------------------------|
A#||----------------------------------------------------|
F#||----------------------------------------------------|
C#||---------13------13h15----------7-7-7-7h8-----------|
G#||-----------------------66666666-----------8-8-8-10--|
C#||--101010------10------------------------------------|
      . . .       .        ........



Chorus
Guitar 1:
D#||---------------------------------------------------|----------------------------------------------------|
A#||---------------------------------------------------|----------------------------------------------------|
F#||--12-12-14-14-15-15-12-14-14-15-15-10-10-10-10-10--|--12-12-14-14-15-15-12-14-14-15-15-10-20-20-20-19~--|
C#||--x--x--x--x--x--x--x--x--x--x--x--x--x--x--x--x---|--x--x--x--x--x--x--x--x--x--x--x--x--x--x--x--x----|
G#||--10-10-12-12-13-13-10-12-12-13-13-8--8--8--8--8---|--10-10-12-12-13-13-10-12-12-13-13-13-18-18-18-17~--|
C#||---------------------------------------------------|----------------------------------------------------|


D#||---------------------------------------------|----------------------------------------------------|
A#||---------------------------------------------|----------------------------------------------------|
F#||--14-14-15-15-12-14-14-15-15-10-10-10-10-10--|--12-12-14-14-15-15-12-14-14-15-15-10-20-20-20-19~--|
C#||--x--x--x--x--x--x--x--x--x--x--x--x--x--x---|--x--x--x--x--x--x--x--x--x--x--x--x--x--x--x--x----|
G#||--12-12-13-13-10-12-12-13-13-8--8--8--8--8---|--10-10-12-12-13-13-10-12-12-13-13-13-18-18-18-17~--|
C#||---------------------------------------------|----------------------------------------------------|


D#||---------------------------------------------|---------------------------------------------------|
A#||---------------------------------------------|---------------------------------------------------|
F#||--14-14-15-15-12-14-14-15-15-15-15\10-10-10--|--10/12-12-14-14-15-15-15-17-17-17-17-15-15-15-15--|
C#||--x--x--x--x--x--x--x--x--x--x--x-\x--x--x---|--x-/x--x--x--x--x--x--x--x--x--x--x--x--x--x--x---|
G#||--12-12-13-13-10-12-12-13-13-13-13\8--8--8---|--8-/10-10-12-12-13-13-13-15-15-15-15-13-13-13-13--|
C#||---------------------------------------------|---------------------------------------------------|


D#||---------------------------------------------------|---------------------------------------------------|
A#||---------------------------------------------------|---------------------------------------------------|
F#||--19-19-19-19-19-19-19-17-15-15-15-15-20-20-20-20--|--19-19-19-19-19-19-19-17-15-15-15-15-15-15-17-17--|
C#||--x--x--x--x--x--x--x--x--x--x--x--x--x--x--x--x---|--x--x--x--x--x--x--x--x--x--x--x--x--x--x--x--x---|
G#||--17-17-17-17-17-17-17-15-13-13-13-13-18-18-18-18--|--17-17-17-17-17-17-17-15-13-13-13-13-13-13-15-15--|
C#||---------------------------------------------------|---------------------------------------------------|


Guitar 2:
D#||-------------------------------------------------------------------|
A#||-------------------------------------------------------------------|
F#||-------------------------------------------------------------------|
C#||--1-1-1-1-1-1-1-1-1-1-1-1-1-1-1-1-1-1-1-1-1-1-1-1-1-1-1-1-0-0-0-0--|
G#||--1-1-1-1-1-1-1-1-1-1-1-1-1-1-1-1-1-1-1-1-1-1-1-1-1-1-1-1-0-0-0-0--|
C#||--1-1-1-1-1-1-1-1-1-1-1-1-1-1-1-1-1-1-1-1-1-1-1-1-1-1-1-1-0-0-0-0--|


D#||-------------------------------------------------------------------|
A#||-------------------------------------------------------------------|
F#||----------------------------------------------------------3-3-3-3--|
C#||--5-5-5-5-5-5-5-5-5-5-5-5-5-5-5-5-5-5-5-5-5-5-5-5-5-5-5-5-3-3-3-3--|
G#||--5-5-5-5-5-5-5-5-5-5-5-5-5-5-5-5-5-5-5-5-5-5-5-5-5-5-5-5-1-1-1-1--|
C#||--5-5-5-5-5-5-5-5-5-5-5-5-5-5-5-5-5-5-5-5-5-5-5-5-5-5-5-5----------|


D#||-------------------------------------------------------------------|
A#||-------------------------------------------------------------------|
F#||-------------------------------------------------------------------|
C#||--1-1-1-1-1-1-1-1-1-1-1-1-1-1-1-1-1-1-1-1-1-1-1-1-4-4-4-4-4-4-4-4--|
G#||--1-1-1-1-1-1-1-1-1-1-1-1-1-1-1-1-1-1-1-1-1-1-1-1-4-4-4-4-4-4-4-4--|
C#||--1-1-1-1-1-1-1-1-1-1-1-1-1-1-1-1-1-1-1-1-1-1-1-1-4-4-4-4-4-4-4-4--|


D#||-------------------------------------------------------------------|
A#||-------------------------------------------------------------------|
F#||--------------------------------------------------3-3-3-3-3-3-3-3--|
C#||--5-5-5-5-5-5-5-5-5-5-5-5-5-5-5-5-5-5-5-5-5-5-5-5-3-3-3-3-3-3-3-3--|
G#||--5-5-5-5-5-5-5-5-5-5-5-5-5-5-5-5-5-5-5-5-5-5-5-5-1-1-1-1-1-1-1-1--|
C#||--5-5-5-5-5-5-5-5-5-5-5-5-5-5-5-5-5-5-5-5-5-5-5-5------------------|


Guitar 1/2:
D#||------|
A#||------|
F#||------|
C#||--1~--|
G#||--1~--|
C#||--1~--|



Breakdown
Guitar 1/2:
D#||--------------|
A#||--------------|
F#||--------------|
C#||--(feedback)--|
G#||--------------|
C#||--------------|


D#||-------------------------------------------------------------------|
A#||-------------------------------------------------------------------|
F#||-------------------------------------------------------------------|
C#||--1-1-1-1-1-1-1-1-1-1-1-1-1-1-1-1-5-5-5-5-5-5-5-5-5-5-5-5-5-5-5-5--|
G#||--1-1-1-1-1-1-1-1-1-1-1-1-1-1-1-1-5-5-5-5-5-5-5-5-5-5-5-5-5-5-5-5--|
C#||--1-1-1-1-1-1-1-1-1-1-1-1-1-1-1-1-5-5-5-5-5-5-5-5-5-5-5-5-5-5-5-5--|
      . . . . . . . . . . . . . . . . . . . . . .

D#||--------------------------------------------------------------|
A#||--------------------------------------------------------------|
F#||--------------------------------------------------------------|
C#||--1-1-1-1-1-1-1-1-1-1-1-1-1-1-1-1-4-4-4-4-4-4-4-4-(feedback)--|
G#||--1-1-1-1-1-1-1-1-1-1-1-1-1-1-1-1-4-4-4-4-4-4-4-4-------------|
C#||--1-1-1-1-1-1-1-1-1-1-1-1-1-1-1-1-4-4-4-4-4-4-4-4-------------|


D#||-----------------------------------------|------------------------------------------|
A#||-----------------------------------------|------------------------------------------|
F#||----------8---8---8-8---8---8-8---8---8--|----------8---8---8-8---8---8b8b--8b--8b--|
C#||--1~------x---x---x-x---x---x-x---x---x--|--1~------x---x---x-x---x---x-x---x---x---|
G#||--1~------6---6---6-6---6---6-6---6---6--|--1~------6---6---6-6---6---6-6---6---6---|
C#||--1~-------------------------------------|--1~--------------------------------------|


D#||-----------------------------------------|------------------------------------------|
A#||-----------------------------------------|------------------------------------------|
F#||----------12--12--1212--12--1212--12--12-|----------12--12--1212--12--12b12b--------|
C#||--5~------x---x---x-x---x---x-x---x---x--|--5~------x---x---x-x---x---x--x---x-11\--|
G#||--5~------10--10--1010--10--1010--10--10-|--5~------10--10--1010--10--10-10--x-11\--|
C#||--5~-------------------------------------|--5~-------------------------------x-11\--|


D#||-----------------------------------------|------------------------------------------|
A#||-----------------------------------------|------------------------------------------|
F#||----------8---8---8-8---8---8-8---8---8--|----------8---8---8-8---8---8b8b--8b--8b--|
C#||--1~------x---x---x-x---x---x-x---x---x--|--1~------x---x---x-x---x---x-x---x---x---|
G#||--1~------6---6---6-6---6---6-6---6---6--|--1~------6---6---6-6---6---6-6---6---6---|
C#||--1~-------------------------------------|--1~--------------------------------------|


D#||-----------------------------------------|--------------------------------------|
A#||-----------------------------------------|--------------------------------------|
F#||----------12--12--1212--12--1212--12--12-|----------12--12--12------------------|
C#||--5~------x---x---x-x---x---x-x---x---x--|--5~------x---x---x--5-5-5-5-5-5-5-5--|
G#||--5~------10--10--1010--10--1010--10--10-|--5~------10--10--10-5-5-5-5-5-5-5-5--|
C#||--5~-------------------------------------|--5~-----------------5-5-5-5-5-5-5-5--|
                                                                   . . .



Interlude
Guitar 1:
D#||---------------------|
A#||---------------------|
F#||--12-12-14-14-15-15--|
C#||--x--x--x--x--x--x---|
G#||--10-10-12-12-13-13--|
C#||---------------------|


Guitar 2:
D#||-----|
A#||-----|
F#||-----|
C#||--1--|
G#||--1--|
C#||--1--|



Chorus
Guitar 1:
D#||---------------------------------|----------------------------------------------------|
A#||---------------------------------|----------------------------------------------------|
F#||--12-14-14-15-15-10-10-10-10-10--|--12-12-14-14-15-15-12-14-14-15-15-10-20-20-20-19~--|
C#||--x--x--x--x--x--x--x--x--x--x---|--x--x--x--x--x--x--x--x--x--x--x--x--x--x--x--x----|
G#||--10-12-12-13-13-8--8--8--8--8---|--10-10-12-12-13-13-10-12-12-13-13-13-18-18-18-17~--|
C#||---------------------------------|----------------------------------------------------|


D#||---------------------------------------------|----------------------------------------------------|
A#||---------------------------------------------|----------------------------------------------------|
F#||--14-14-15-15-12-14-14-15-15-10-10-10-10-10--|--12-12-14-14-15-15-12-14-14-15-15-10-20-20-20-19~--|
C#||--x--x--x--x--x--x--x--x--x--x--x--x--x--x---|--x--x--x--x--x--x--x--x--x--x--x--x--x--x--x--x----|
G#||--12-12-13-13-10-12-12-13-13-8--8--8--8--8---|--10-10-12-12-13-13-10-12-12-13-13-13-18-18-18-17~--|
C#||---------------------------------------------|----------------------------------------------------|


D#||---------------------------------------------|---------------------------------------------------|
A#||---------------------------------------------|---------------------------------------------------|
F#||--14-14-15-15-12-14-14-15-15-15-15\10-10-10--|--10/12-12-14-14-15-15-15-17-17-17-17-15-15-15-15--|
C#||--x--x--x--x--x--x--x--x--x--x--x-\x--x--x---|--x-/x--x--x--x--x--x--x--x--x--x--x--x--x--x--x---|
G#||--12-12-13-13-10-12-12-13-13-13-13\8--8--8---|--8-/10-10-12-12-13-13-13-15-15-15-15-13-13-13-13--|
C#||---------------------------------------------|---------------------------------------------------|


D#||---------------------------------------------------|---------------------------------------------------|
A#||---------------------------------------------------|---------------------------------------------------|
F#||--19-19-19-19-19-19-19-17-15-15-15-15-20-20-20-20--|--19-19-19-19-19-19-19-17-15-15-15-15-15-15-17-17--|
C#||--x--x--x--x--x--x--x--x--x--x--x--x--x--x--x--x---|--x--x--x--x--x--x--x--x--x--x--x--x--x--x--x--x---|
G#||--17-17-17-17-17-17-17-15-13-13-13-13-18-18-18-18--|--17-17-17-17-17-17-17-15-13-13-13-13-13-13-15-15--|
C#||---------------------------------------------------|---------------------------------------------------|


Guitar 2:
D#||-------------------------------------------------------|
A#||-------------------------------------------------------|
F#||-------------------------------------------------------|
C#||--1-1-1-1-1-1-1-1-1-1-1-1-1-1-1-1-1-1-1-1-1-1-0-0-0-0--|
G#||--1-1-1-1-1-1-1-1-1-1-1-1-1-1-1-1-1-1-1-1-1-1-0-0-0-0--|
C#||--1-1-1-1-1-1-1-1-1-1-1-1-1-1-1-1-1-1-1-1-1-1-0-0-0-0--|


D#||-------------------------------------------------------------------|
A#||-------------------------------------------------------------------|
F#||----------------------------------------------------------3-3-3-3--|
C#||--5-5-5-5-5-5-5-5-5-5-5-5-5-5-5-5-5-5-5-5-5-5-5-5-5-5-5-5-3-3-3-3--|
G#||--5-5-5-5-5-5-5-5-5-5-5-5-5-5-5-5-5-5-5-5-5-5-5-5-5-5-5-5-1-1-1-1--|
C#||--5-5-5-5-5-5-5-5-5-5-5-5-5-5-5-5-5-5-5-5-5-5-5-5-5-5-5-5----------|


D#||-------------------------------------------------------------------|
A#||-------------------------------------------------------------------|
F#||-------------------------------------------------------------------|
C#||--1-1-1-1-1-1-1-1-1-1-1-1-1-1-1-1-1-1-1-1-1-1-1-1-4-4-4-4-4-4-4-4--|
G#||--1-1-1-1-1-1-1-1-1-1-1-1-1-1-1-1-1-1-1-1-1-1-1-1-4-4-4-4-4-4-4-4--|
C#||--1-1-1-1-1-1-1-1-1-1-1-1-1-1-1-1-1-1-1-1-1-1-1-1-4-4-4-4-4-4-4-4--|


D#||-------------------------------------------------------------------|
A#||-------------------------------------------------------------------|
F#||--------------------------------------------------3-3-3-3-3-3-3-3--|
C#||--5-5-5-5-5-5-5-5-5-5-5-5-5-5-5-5-5-5-5-5-5-5-5-5-3-3-3-3-3-3-3-3--|
G#||--5-5-5-5-5-5-5-5-5-5-5-5-5-5-5-5-5-5-5-5-5-5-5-5-1-1-1-1-1-1-1-1--|
C#||--5-5-5-5-5-5-5-5-5-5-5-5-5-5-5-5-5-5-5-5-5-5-5-5------------------|



Intro
Guitar 1:
D#||------------------|
A#||------------------|
F#||------7-----------|
C#||--5-------1-0--4--|
G#||--5-------1-0--4--|
C#||--5-------1-0--4--|


Guitar 2:
D#||------------------|
A#||------------------|
F#||------------------|
C#||--5---8---1-0--4--|
G#||--5-------1-0--4--|
C#||--5-------1-0--4--|





____________________________________________________________________________________________________

                                        T11.   JE ME SOUVIENS
____________________________________________________________________________________________________





Tuning: Drop C# (C# G# C# F# A# D#)


Intro
Guitar 1:
D#||--------------------------------------------------------|
A#||--------------------------------------------------------|
F#||--------------------------------------------------------|
C#||--0---0-------------0---0-------------0---0-------------|
G#||--0---0--8-7-5-7-8--0---0--8-7-5-7-8--0---0--8-7-5-7-8--|
C#||--0---0-------------0---0-------------0---0-------------|


Guitar 2:
D#||--------------------------------------------------------|
A#||--------------------------------------------------------|
F#||--------------------------------------------------------|
C#||--0---0-------------0---0-------------0---0-------------|
G#||--0---0-------------0---0-------------0---0-------------|
C#||--0---0-------------0---0-------------0---0-------------|


Guitar 1/2:
D#||-------------------|
A#||-------------------|
F#||-------------------|
C#||--8----------------|
G#||--8----------------|
C#||--8---3-5-7-8-7-5--|


D#||--------------------------------------------------------|
A#||--------------------------------------------------------|
F#||--------------------------------------------------------|
C#||--0---0-------------0---0-------------0---0-------------|
G#||--0---0--8-7-5-7-8--0---0--8-7-5-7-8--0---0--8-7-5-7-8--|
C#||--0---0-------------0---0-------------0---0-------------|


D#||--------------------------------------|
A#||--------------------------------------|
F#||--------------------------------------|
C#||--2---3---5---7---6~------------------|
G#||--3---3---5---7---7~------\\pick-\\---|
C#||--2---3---5---7---6~-------\\slide\\--|



Verse
Guitar 1/2:
D#||-----------------------------------------------------------------------------|
A#||-----------------------------------------------------------------------------|
F#||---------1010101010---------1010101010--------1010101010---------1010101010--|
C#||--0---0--x-x-x-x-x---0---0--x-x-x-x-x---8--8--x-x-x-x-x---7---7--x-x-x-x-x---|
G#||--0---0--8-8-8-8-8---0---0--8-8-8-8-8---8--8--8-8-8-8-8---8---8--8-8-8-8-8---|
C#||--0---0--------------0---0--------------8--8--------------7---7--------------|


D#||--------------------------------------------------------------------------------|
A#||-------------------------------------------------1111111111---------1010101010--|
F#||-----------9-9-9-9-9-----------9-9-9-9-9---------x-x-x-x-x----------x-x-x-x-x---|
C#||--10---10--x-x-x-x-x--10---10--x-x-x-x-x--8---8--8-8-8-8-8---7---7--7-7-7-7-7---|
G#||--10---10--7-7-7-7-7--10---10--7-7-7-7-7--8---8--------------8---8--------------|
C#||--10---10-------------10---10-------------8---8--------------7---7--------------|



Guitar 1 (Left):
D#||------------------------------------------------------------------------------|
A#||---------1010101010---------1010101010---------1313131313---------1313131313--|
F#||---------x-x-x-x-x----------x-x-x-x-x----------x-x-x-x-x----------x-x-x-x-x---|
C#||--0---0--7-7-7-7-7---0---0--7-7-7-7-7---8---8--1010101010--7---7--1010101010--|
G#||--0---0--------------0---0--------------8---8--------------8---8--------------|
C#||--0---0--------------0---0--------------8---8--------------7---7--------------|


D#||----------------------------------------------------------------------------------|
A#||--------------------------------1313131313---------1515151515---------1313131313--|
F#||-----------1414141414-----------x-x-x-x-x----------x-x-x-x-x----------x-x-x-x-x---|
C#||--10---10--x-x-x-x-x---10---10--1010101010--8---8--1212121212--7---7--1010101010--|
G#||--10---10--1212121212--10---10--------------8---8--------------8---8--------------|
C#||--10---10--------------10---10--------------8---8--------------7---7--------------|


Guitar 2 (Right):
D#||-----------------------------------------------------------------------------|
A#||-----------------------------------------------------------------------------|
F#||---------1010101010---------1010101010--------1010101010---------1010101010--|
C#||--0---0--x-x-x-x-x---0---0--x-x-x-x-x---8--8--x-x-x-x-x---7---7--x-x-x-x-x---|
G#||--0---0--8-8-8-8-8---0---0--8-8-8-8-8---8--8--8-8-8-8-8---8---8--8-8-8-8-8---|
C#||--0---0--------------0---0--------------8--8--------------7---7--------------|


D#||--------------------------------------------------------------------------------|
A#||-------------------------------------------------1111111111---------1010101010--|
F#||-----------9-9-9-9-9-----------9-9-9-9-9---------x-x-x-x-x----------x-x-x-x-x---|
C#||--10---10--x-x-x-x-x--10---10--x-x-x-x-x--8---8--8-8-8-8-8---7---7--7-7-7-7-7---|
G#||--10---10--7-7-7-7-7--10---10--7-7-7-7-7--8---8--------------8---8--------------|
C#||--10---10-------------10---10-------------8---8--------------7---7--------------|



Pre-Chorus
Guitar 1:
D#||---------------------------------------|
A#||---------------------------------------|
F#||--3~--------5~--------6~--------10--9--|
C#||--x---------x---------x---------x---x--|
G#||--1~--------3~--------4~--------8---7--|
C#||---------------------------------------|


D#||-------------------------------------------------------|
A#||-------------------------------------------------------|
F#||--3~--------5---------6-6-6-6-6-6-6-6-7-7-7-7-9-9-9-9--|
C#||--x---------x---------7-7-7-7-7-7-7-7-7-7-7-7-7-7-7-7--|
G#||--1~--------3------------------------------------------|
C#||-------------------------------------------------------|


Guitar 2:
D#||---------------------------------------|-----------------------------------------------------|
A#||---------------------------------------|-----------------------------------------------------|
F#||---------------------------------------|----------------------2-2-2-2-2-2-2-2-2-2-2-2-2-2-2--|
C#||--5~---3~---7~---5~---5~--------7---5--|--5~---3~---7~---5~---2-2-2-2-2-2-2-2-2-2-2-2-2-2-2--|
G#||--1~--------3~--------4~--------5---3--|--1~--------3~--------0-0-0-0-0-0-0-0-0-0-0-0-0-0-0--|
C#||---------------------------------------|-----------------------------------------------------|



Chorus
Guitar 1:
D#||---------------------------------------------------------------------------------------------------|
A#||--------------18-18-------17-17-------18-18-------------------18-18-------17-17-------18-18--------|
F#||--------17-17-------17-17-------17-17-------17-17-------17-17-------17-17-------17-17-------17-17--|
C#||--15-15-------------------------------------------14-14--------------------------------------------|
G#||---------------------------------------------------------------------------------------------------|
C#||---------------------------------------------------------------------------------------------------|


D#||---------------------------------------------------------------------------------------------------|
A#||--18-18-18-18-18-18-18-18-17-17-17-17-17-17-17-17-15-15-15-15-15-15-15-15-15-15-15-15-15-15-15-15--|
F#||--17-17-17-17-17-17-17-17-17-17-17-17-17-17-17-17-15-15-15-15-15-15-15-15-15-15-15-15-15-15-15-15--|
C#||---------------------------------------------------------------------------------------------------|
G#||---------------------------------------------------------------------------------------------------|
C#||---------------------------------------------------------------------------------------------------|


D#||---------------------------------------------------------------------------------------------------|
A#||--------------18-18-------17-17-------18-18-------------------18-18-------17-17-------18-18--------|
F#||--------17-17-------17-17-------17-17-------17-17-------17-17-------17-17-------17-17-------17-17--|
C#||--15-15-------------------------------------------14-14--------------------------------------------|
G#||---------------------------------------------------------------------------------------------------|
C#||---------------------------------------------------------------------------------------------------|


D#||------------------------------------------------------------------------------------------------|
A#||--18~---------------------17~---------------------15-15-15-15-15-15-15-15-15-15-15-15-15-15-15--|
F#||--17~---------------------17~---------------------15-15-15-15-15-15-15-15-15-15-15-15-15-15-15--|
C#||------------------------------------------------------------------------------------------------|
G#||------------------------------------------------------------------------------------------------|
C#||------------------------------------------------------------------------------------------------|


Guitar 2:
D#||-------------------------------------------------------------------|
A#||-------------------------------------------------------------------|
F#||-------------------------------------------------------------------|
C#||--3-3-3-3-3-3-3-3-3-3-3-3-3-3-3-5-2-2-2-2-2-2-2-2-2-2-2-2-2-2-2-2--|
G#||--3-3-3-3-3-3-3-3-3-3-3-3-3-3-3-5-3-3-3-3-3-3-3-3-3-3-3-3-3-3-3-3--|
C#||--3-3-3-3-3-3-3-3-3-3-3-3-3-3-3-5-2-2-2-2-2-2-2-2-2-2-2-2-2-2-2-2--|


D#||-------------------------------------------------------------------|
A#||-------------------------------------------------------------------|
F#||--7-7-7-7-7-7-7-7-5-5-5-5-5-5-5-5-3-3-3-3-3-3-3-3-3-3-3-3-3-3-3-3--|
C#||--7-7-7-7-7-7-7-7-5-5-5-5-5-5-5-5-3-3-3-3-3-3-3-3-3-3-3-3-3-3-3-3--|
G#||--5-5-5-5-5-5-5-5-3-3-3-3-3-3-3-3-1-1-1-1-1-1-1-1-1-1-1-1-1-1-1-1--|
C#||-------------------------------------------------------------------|


D#||-------------------------------------------------------------------|
A#||-------------------------------------------------------------------|
F#||-------------------------------------------------------------------|
C#||--3-3-3-3-3-3-3-3-3-3-3-3-3-3-3-5-2-2-2-2-2-2-2-2-2-2-2-2-2-2-2-2--|
G#||--3-3-3-3-3-3-3-3-3-3-3-3-3-3-3-5-3-3-3-3-3-3-3-3-3-3-3-3-3-3-3-3--|
C#||--3-3-3-3-3-3-3-3-3-3-3-3-3-3-3-5-2-2-2-2-2-2-2-2-2-2-2-2-2-2-2-2--|


D#||-----------------------------------------------------------------|
A#||-----------------------------------------------------------------|
F#||------------------5~--------------3-3-3-3-3-3-3-3-3-3-3-3-3-3-3--|
C#||--0~--------------5~--------------3-3-3-3-3-3-3-3-3-3-3-3-3-3-3--|
G#||--0~--------------3~--------------1-1-1-1-1-1-1-1-1-1-1-1-1-1-1--|
C#||--0~-------------------------------------------------------------|



Pre-Verse
Guitar 1:
D#||--------------------------------------------------------|
A#||--------------------------------------------------------|
F#||--------------------------------------------------------|
C#||--0---0-------------0---0-------------0---0-------------|
G#||--0---0--8-7-5-7-8--0---0--8-7-5-7-8--0---0--8-7-5-7-8--|
C#||--0---0-------------0---0-------------0---0-------------|


Guitar 2:
D#||--------------------------------------------------------|
A#||--------------------------------------------------------|
F#||--------------------------------------------------------|
C#||--0---0-------------0---0-------------0---0--7-5-3-5-7--|
G#||--0---0-------------0---0--8-7-5-7-8--0---0-------------|
C#||--0---0-------------0---0-------------0---0-------------|


Guitar 1/2:
D#||--------------------------------------|
A#||--------------------------------------|
F#||--------------------------------------|
C#||--2---3---5---7---6~------------------|
G#||--3---3---5---7---7~------\\pick-\\---|
C#||--2---3---5---7---6~-------\\slide\\--|



Verse
Guitar 1/2:
D#||-----------------------------------------------------------------------------|
A#||-----------------------------------------------------------------------------|
F#||---------1010101010---------1010101010--------1010101010---------1010101010--|
C#||--0---0--x-x-x-x-x---0---0--x-x-x-x-x---8--8--x-x-x-x-x---7---7--x-x-x-x-x---|
G#||--0---0--8-8-8-8-8---0---0--8-8-8-8-8---8--8--8-8-8-8-8---8---8--8-8-8-8-8---|
C#||--0---0--------------0---0--------------8--8--------------7---7--------------|


D#||--------------------------------------------------------------------------------|
A#||-------------------------------------------------1111111111---------1010101010--|
F#||-----------9-9-9-9-9-----------9-9-9-9-9---------x-x-x-x-x----------x-x-x-x-x---|
C#||--10---10--x-x-x-x-x--10---10--x-x-x-x-x--8---8--8-8-8-8-8---7---7--7-7-7-7-7---|
G#||--10---10--7-7-7-7-7--10---10--7-7-7-7-7--8---8--------------8---8--------------|
C#||--10---10-------------10---10-------------8---8--------------7---7--------------|



Guitar 1 (Left):
D#||------------------------------------------------------------------------------|
A#||---------1010101010---------1010101010---------1313131313---------1313131313--|
F#||---------x-x-x-x-x----------x-x-x-x-x----------x-x-x-x-x----------x-x-x-x-x---|
C#||--0---0--7-7-7-7-7---0---0--7-7-7-7-7---8---8--1010101010--7---7--1010101010--|
G#||--0---0--------------0---0--------------8---8--------------8---8--------------|
C#||--0---0--------------0---0--------------8---8--------------7---7--------------|


D#||----------------------------------------------------------------------------------|
A#||--------------------------------1313131313---------1515151515---------1313131313--|
F#||-----------1414141414-----------x-x-x-x-x----------x-x-x-x-x----------x-x-x-x-x---|
C#||--10---10--x-x-x-x-x---10---10--1010101010--8---8--1212121212--7---7--1010101010--|
G#||--10---10--1212121212--10---10--------------8---8--------------8---8--------------|
C#||--10---10--------------10---10--------------8---8--------------7---7--------------|


Guitar 2 (Right):
D#||-----------------------------------------------------------------------------|
A#||-----------------------------------------------------------------------------|
F#||---------1010101010---------1010101010--------1010101010---------1010101010--|
C#||--0---0--x-x-x-x-x---0---0--x-x-x-x-x---8--8--x-x-x-x-x---7---7--x-x-x-x-x---|
G#||--0---0--8-8-8-8-8---0---0--8-8-8-8-8---8--8--8-8-8-8-8---8---8--8-8-8-8-8---|
C#||--0---0--------------0---0--------------8--8--------------7---7--------------|


D#||--------------------------------------------------------------------------------|
A#||-------------------------------------------------1111111111---------1010101010--|
F#||-----------9-9-9-9-9-----------9-9-9-9-9---------x-x-x-x-x----------x-x-x-x-x---|
C#||--10---10--x-x-x-x-x--10---10--x-x-x-x-x--8---8--8-8-8-8-8---7---7--7-7-7-7-7---|
G#||--10---10--7-7-7-7-7--10---10--7-7-7-7-7--8---8--------------8---8--------------|
C#||--10---10-------------10---10-------------8---8--------------7---7--------------|



Pre-Chorus
Guitar 1:
D#||---------------------------------------|
A#||---------------------------------------|
F#||--3~--------5~--------6~--------10--9--|
C#||--x---------x---------x---------x---x--|
G#||--1~--------3~--------4~--------8---7--|
C#||---------------------------------------|


D#||-------------------------------------------------------|
A#||-------------------------------------------------------|
F#||--3~--------5---------6-6-6-6-6-6-6-6-7-7-7-7-9-9-9-9--|
C#||--x---------x---------7-7-7-7-7-7-7-7-7-7-7-7-7-7-7-7--|
G#||--1~--------3------------------------------------------|
C#||-------------------------------------------------------|


Guitar 2:
D#||---------------------------------------|-----------------------------------------------------|
A#||---------------------------------------|-----------------------------------------------------|
F#||---------------------------------------|----------------------2-2-2-2-2-2-2-2-2-2-2-2-2-2-2--|
C#||--5~---3~---7~---5~---5~--------7---5--|--5~---3~---7~---5~---2-2-2-2-2-2-2-2-2-2-2-2-2-2-2--|
G#||--1~--------3~--------4~--------5---3--|--1~--------3~--------0-0-0-0-0-0-0-0-0-0-0-0-0-0-0--|
C#||---------------------------------------|-----------------------------------------------------|



Chorus
Guitar 1:
D#||---------------------------------------------------------------------------------------------------|
A#||--------------18-18-------17-17-------18-18-------------------18-18-------17-17-------18-18--------|
F#||--------17-17-------17-17-------17-17-------17-17-------17-17-------17-17-------17-17-------17-17--|
C#||--15-15-------------------------------------------14-14--------------------------------------------|
G#||---------------------------------------------------------------------------------------------------|
C#||---------------------------------------------------------------------------------------------------|


D#||---------------------------------------------------------------------------------------------------|
A#||--18-18-18-18-18-18-18-18-17-17-17-17-17-17-17-17-15-15-15-15-15-15-15-15-15-15-15-15-15-15-15-15--|
F#||--17-17-17-17-17-17-17-17-17-17-17-17-17-17-17-17-15-15-15-15-15-15-15-15-15-15-15-15-15-15-15-15--|
C#||---------------------------------------------------------------------------------------------------|
G#||---------------------------------------------------------------------------------------------------|
C#||---------------------------------------------------------------------------------------------------|


D#||---------------------------------------------------------------------------------------------------|
A#||--------------18-18-------17-17-------18-18-------------------18-18-------17-17-------18-18--------|
F#||--------17-17-------17-17-------17-17-------17-17-------17-17-------17-17-------17-17-------17-17--|
C#||--15-15-------------------------------------------14-14--------------------------------------------|
G#||---------------------------------------------------------------------------------------------------|
C#||---------------------------------------------------------------------------------------------------|


D#||---------------------------------------------------------------------------------------------------|
A#||--18~---------------------17~---------------------15-15-15-15-15-15-15-15-15-15-15-15-15-17-17-17--|
F#||--17~---------------------17~---------------------15-15-15-15-15-15-15-15-15-15-15-15-15-15-15-15--|
C#||---------------------------------------------------------------------------------------------------|
G#||---------------------------------------------------------------------------------------------------|
C#||---------------------------------------------------------------------------------------------------|


Guitar 2:
D#||-------------------------------------------------------------------|
A#||-------------------------------------------------------------------|
F#||-------------------------------------------------------------------|
C#||--3-3-3-3-3-3-3-3-3-3-3-3-3-3-3-5-2-2-2-2-2-2-2-2-2-2-2-2-2-2-2-2--|
G#||--3-3-3-3-3-3-3-3-3-3-3-3-3-3-3-5-3-3-3-3-3-3-3-3-3-3-3-3-3-3-3-3--|
C#||--3-3-3-3-3-3-3-3-3-3-3-3-3-3-3-5-2-2-2-2-2-2-2-2-2-2-2-2-2-2-2-2--|


D#||-------------------------------------------------------------------|
A#||-------------------------------------------------------------------|
F#||--7-7-7-7-7-7-7-7-5-5-5-5-5-5-5-5-3-3-3-3-3-3-3-3-3-3-3-3-3-3-3-3--|
C#||--7-7-7-7-7-7-7-7-5-5-5-5-5-5-5-5-3-3-3-3-3-3-3-3-3-3-3-3-3-3-3-3--|
G#||--5-5-5-5-5-5-5-5-3-3-3-3-3-3-3-3-1-1-1-1-1-1-1-1-1-1-1-1-1-1-1-1--|
C#||-------------------------------------------------------------------|


D#||-------------------------------------------------------------------|
A#||-------------------------------------------------------------------|
F#||-------------------------------------------------------------------|
C#||--3-3-3-3-3-3-3-3-3-3-3-3-3-3-3-5-2-2-2-2-2-2-2-2-2-2-2-2-2-2-2-2--|
G#||--3-3-3-3-3-3-3-3-3-3-3-3-3-3-3-5-3-3-3-3-3-3-3-3-3-3-3-3-3-3-3-3--|
C#||--3-3-3-3-3-3-3-3-3-3-3-3-3-3-3-5-2-2-2-2-2-2-2-2-2-2-2-2-2-2-2-2--|


D#||-------------------------------------------------------------------|
A#||-------------------------------------------------------------------|
F#||------------------5~--------------3-3-3-3-3-3-3-3-3-3-3-3-3-3-3-3--|
C#||--0~--------------5~--------------3-3-3-3-3-3-3-3-3-3-3-3-3-3-3-3--|
G#||--0~--------------3~--------------1-1-1-1-1-1-1-1-1-1-1-1-1-1-1-1--|
C#||--0~---------------------------------------------------------------|



Bridge
Guitar 1/2:
D#||---------------------------------------------------------------------|
A#||---------------------------------------------------------------------|
F#||--3-3-3-3-3-3-3-3------------------3-3-3-3-3-3-3-3-------------------|
C#||--5-5-5-5-5-5-5-5----7-7-7-7-7-7-7-5-5-5-5-5-5-5-5----7-7-7-7-7-7-7--|
G#||--5-5-5-5-5-5-5-5----5-5-5-5-5-5-5-5-5-5-5-5-5-5-5----5-5-5-5-5-5-5--|
C#||---------------------0-0-0-0-0-0-0--------------------0-0-0-0-0-0-0--|


D#||---------------------------------------------------------------------|
A#||---------------------------------------------------------------------|
F#||--3-3-3-3-3-3-3-3------------------2-2-2-2-2-2-2-2----0-0-0-0-0-0-0--|
C#||--5-5-5-5-5-5-5-5----7-7-7-7-7-7-7-3-3-3-3-3-3-3-3----2-2-2-2-2-2-2--|
G#||--5-5-5-5-5-5-5-5----5-5-5-5-5-5-5-3-3-3-3-3-3-3-3----3-3-3-3-3-3-3--|
C#||---------------------0-0-0-0-0-0-0-----------------------------------|


Guitar 1:
D#||---------------------------------------------------------------------------------------------------|
A#||--------------15-15----17-------------------------------------15-15----17--------------------------|
F#||--------15-15-------15-------------14-15-14-------------15-15-------15-------------14-15-14--------|
C#||--17-17----------------------12-15----------15-12-17-17----------------------12-15----------15-12--|
G#||---------------------------------------------------------------------------------------------------|
C#||---------------------------------------------------------------------------------------------------|


D#||----------------------------------------------|
A#||--------------15-15----17---------------------|
F#||-----15-15-15-------15------------------------|
C#||--17-------------------------15-15----12-12\--|
G#||----------------------------------------------|
C#||----------------------------------------------|


D#||---------------------------------------------------|
A#||---------------------------------------------------|
F#||--14-14-14-14-14-14-14-14----12-12-12-12-12-12-12--|
C#||---------------------------------------------------|
G#||---------------------------------------------------|
C#||---------------------------------------------------|


Guitar 2:
D#||---------------------------------------------------------------------|
A#||---------------------------------------------------------------------|
F#||--3-3-3-3-3-3-3-3------------------3-3-3-3-3-3-3-3-------------------|
C#||--5-5-5-5-5-5-5-5----7-7-7-7-7-7-7-5-5-5-5-5-5-5-5----7-7-7-7-7-7-7--|
G#||--5-5-5-5-5-5-5-5----5-5-5-5-5-5-5-5-5-5-5-5-5-5-5----5-5-5-5-5-5-5--|
C#||---------------------0-0-0-0-0-0-0--------------------0-0-0-0-0-0-0--|


D#||-----------------------------------|
A#||-----------------------------------|
F#||--3-3-3-3-3-3-3-3------------------|
C#||--5-5-5-5-5-5-5-5----7-7-----7-7\--|
G#||--5-5-5-5-5-5-5-5----5-8-----5-8\--|
C#||---------------------0-0-----0-0\--|


D#||------------------------------------|
A#||------------------------------------|
F#||--2-2-2-2-2-2-2-2----0-0-0-0-0-0-0--|
C#||--3-3-3-3-3-3-3-3----2-2-2-2-2-2-2--|
G#||--3-3-3-3-3-3-3-3----3-3-3-3-3-3-3--|
C#||------------------------------------|



Pre-Chorus
Guitar 1:
D#||---------------------------------------|
A#||---------------------------------------|
F#||--3~--------5~--------6~--------10--9--|
C#||--x---------x---------x---------x---x--|
G#||--1~--------3~--------4~--------8---7--|
C#||---------------------------------------|


D#||-------------------------------------------------------|
A#||-------------------------------------------------------|
F#||--3~--------5---------6-6-6-6-6-6-6-6-7-7-7-7-9-9-9-9--|
C#||--x---------x---------7-7-7-7-7-7-7-7-7-7-7-7-7-7-7-7--|
G#||--1~--------3------------------------------------------|
C#||-------------------------------------------------------|


D#||-----------------------------------|
A#||-----------------------------------|
F#||--6-6-6-6-6-6-6-6-7-7-7-7-9-9-9-9--|
C#||--7-7-7-7-7-7-7-7-7-7-7-7-7-7-7-7--|
G#||-----------------------------------|
C#||-----------------------------------|


Guitar 2:
D#||---------------------------------------|------------------------------------------------|
A#||---------------------------------------|------------------------------------------------|
F#||---------------------------------------|------------------------------------------------|
C#||--5~---3~---7~---5~---5~--------7---5--|--5~---3~---7~---5~---7~------------------------|
G#||--1~--------3~--------4~--------5---3--|--1~--------3~--------4~------------\\pick-\\---|
C#||---------------------------------------|-------------------------------------\\slide\\--|



Chorus
Guitar 1:
D#||---------------------------------------------------------------------------------------------------|
A#||--------------18-18-------17-17-------18-18-------------------18-18-------17-17-------18-18--------|
F#||--------17-17-------17-17-------17-17-------17-17-------17-17-------17-17-------17-17-------17-17--|
C#||--15-15-------------------------------------------14-14--------------------------------------------|
G#||---------------------------------------------------------------------------------------------------|
C#||---------------------------------------------------------------------------------------------------|


D#||---------------------------------------------------------------------------------------------------|
A#||--18-18-18-18-18-18-18-18-17-17-17-17-17-17-17-17-15-15-15-15-15-15-15-15-15-15-15-15-15-15-15-15--|
F#||--17-17-17-17-17-17-17-17-17-17-17-17-17-17-17-17-15-15-15-15-15-15-15-15-15-15-15-15-15-15-15-15--|
C#||---------------------------------------------------------------------------------------------------|
G#||---------------------------------------------------------------------------------------------------|
C#||---------------------------------------------------------------------------------------------------|


D#||---------------------------------------------------------------------------------------------------|
A#||--------------18-18-------17-17-------18-18-------------------18-18-------17-17-------18-18--------|
F#||--------17-17-------17-17-------17-17-------17-17-------17-17-------17-17-------17-17-------17-17--|
C#||--15-15-------------------------------------------14-14--------------------------------------------|
G#||---------------------------------------------------------------------------------------------------|
C#||---------------------------------------------------------------------------------------------------|


D#||---------------------------------------------------------------------------------------|
A#||--18-18-18-18-18-18-18-18-17-17-17-17-17-17-17-17-15-15-15-15-15-15-15-15-15-15-15-15--|
F#||--17-17-17-17-17-17-17-17-17-17-17-17-17-17-17-17-15-15-15-15-15-15-15-15-15-15-15-15--|
C#||---------------------------------------------------------------------------------------|
G#||---------------------------------------------------------------------------------------|
C#||---------------------------------------------------------------------------------------|


D#||----------------|
A#||--15---15-------|
F#||--15---15---15--|
C#||------------15--|
G#||----------------|
C#||----------------|


Guitar 2:
D#||-------------------------------------------------------------------|
A#||-------------------------------------------------------------------|
F#||-------------------------------------------------------------------|
C#||--3-3-3-3-3-3-3-3-3-3-3-3-3-3-3-5-2-2-2-2-2-2-2-2-2-2-2-2-2-2-2-2--|
G#||--3-3-3-3-3-3-3-3-3-3-3-3-3-3-3-5-3-3-3-3-3-3-3-3-3-3-3-3-3-3-3-3--|
C#||--3-3-3-3-3-3-3-3-3-3-3-3-3-3-3-5-2-2-2-2-2-2-2-2-2-2-2-2-2-2-2-2--|


D#||-------------------------------------------------------------------|
A#||-------------------------------------------------------------------|
F#||--7-7-7-7-7-7-7-7-5-5-5-5-5-5-5-5-3-3-3-3-3-3-3-3-3-3-3-3-3-3-3-3--|
C#||--7-7-7-7-7-7-7-7-5-5-5-5-5-5-5-5-3-3-3-3-3-3-3-3-3-3-3-3-3-3-3-3--|
G#||--5-5-5-5-5-5-5-5-3-3-3-3-3-3-3-3-1-1-1-1-1-1-1-1-1-1-1-1-1-1-1-1--|
C#||-------------------------------------------------------------------|


D#||-------------------------------------------------------------------|
A#||-------------------------------------------------------------------|
F#||-------------------------------------------------------------------|
C#||--3-3-3-3-3-3-3-3-3-3-3-3-3-3-3-5-2-2-2-2-2-2-2-2-2-2-2-2-2-2-2-2--|
G#||--3-3-3-3-3-3-3-3-3-3-3-3-3-3-3-5-3-3-3-3-3-3-3-3-3-3-3-3-3-3-3-3--|
C#||--3-3-3-3-3-3-3-3-3-3-3-3-3-3-3-5-2-2-2-2-2-2-2-2-2-2-2-2-2-2-2-2--|


D#||-------------------------------------------------------------------------|
A#||-------------------------------------------------------------------------|
F#||--7-7-7-7-7-7-7-7-5-5-5-5-5-5-5-5-3-3-3-3-3-3-3-3-3-3-3-3-3---3---3---5--|
C#||--7-7-7-7-7-7-7-7-5-5-5-5-5-5-5-5-3-3-3-3-3-3-3-3-3-3-3-3-3---3---3---5--|
G#||--5-5-5-5-5-5-5-5-3-3-3-3-3-3-3-3-1-1-1-1-1-1-1-1-1-1-1-1-1---1---1---3--|
C#||-------------------------------------------------------------------------|



Outro
Guitar 1:
D#||---------------------------------------------------------------------------------------------------|
A#||--------------18-18-------17-17-------18-18-------------------18-18-------17-17-------18-18--------|
F#||--------17-17-------17-17-------17-17-------17-17-------17-17-------17-17-------17-17-------17-17--|
C#||--15-15-------------------------------------------14-14--------------------------------------------|
G#||---------------------------------------------------------------------------------------------------|
C#||---------------------------------------------------------------------------------------------------|


D#||---------------------------------------------------------------------------------------------------|
A#||--18-18-18-18-18-18-18-18-17-17-17-17-17-17-17-17-15-15-15-15-15-15-15-15-15-15-15-15-15-15-15-15--|
F#||--17-17-17-17-17-17-17-17-17-17-17-17-17-17-17-17-15-15-15-15-15-15-15-15-15-15-15-15-15-15-15-15--|
C#||---------------------------------------------------------------------------------------------------|
G#||---------------------------------------------------------------------------------------------------|
C#||---------------------------------------------------------------------------------------------------|


D#||---------------------------------------------------------------------------------------------------|
A#||--------------18-18-------17-17-------18-18-------------------18-18-------17-17-------18-18--------|
F#||--------17-17-------17-17-------17-17-------17-17-------17-17-------17-17-------17-17-------17-17--|
C#||--15-15-------------------------------------------14-14--------------------------------------------|
G#||---------------------------------------------------------------------------------------------------|
C#||---------------------------------------------------------------------------------------------------|


D#||-------------------------------------------------------|
A#||--18~---------------------17~---------------------15~--|
F#||--17~---------------------17~---------------------15~--|
C#||-------------------------------------------------------|
G#||-------------------------------------------------------|
C#||-------------------------------------------------------|


Guitar 2:
D#||-------------------------------------------------------------------|
A#||-------------------------------------------------------------------|
F#||-------------------------------------------------------------------|
C#||--3-3-3-3-3-3-3-3-3-3-3-3-3-3-3-5-2-2-2-2-2-2-2-2-2-2-2-2-2-2-2-2--|
G#||--3-3-3-3-3-3-3-3-3-3-3-3-3-3-3-5-3-3-3-3-3-3-3-3-3-3-3-3-3-3-3-3--|
C#||--3-3-3-3-3-3-3-3-3-3-3-3-3-3-3-5-2-2-2-2-2-2-2-2-2-2-2-2-2-2-2-2--|


D#||-------------------------------------------------------------------|
A#||-------------------------------------------------------------------|
F#||--7-7-7-7-7-7-7-7-5-5-5-5-5-5-5-5-3-3-3-3-3-3-3-3-3-3-3-3-3-3-3-3--|
C#||--7-7-7-7-7-7-7-7-5-5-5-5-5-5-5-5-3-3-3-3-3-3-3-3-3-3-3-3-3-3-3-3--|
G#||--5-5-5-5-5-5-5-5-3-3-3-3-3-3-3-3-1-1-1-1-1-1-1-1-1-1-1-1-1-1-1-1--|
C#||-------------------------------------------------------------------|


D#||-------------------------------------------------------------------|
A#||-------------------------------------------------------------------|
F#||-------------------------------------------------------------------|
C#||--3-3-3-3-3-3-3-3-3-3-3-3-3-3-3-5-2-2-2-2-2-2-2-2-2-2-2-2-2-2-2-2--|
G#||--3-3-3-3-3-3-3-3-3-3-3-3-3-3-3-5-3-3-3-3-3-3-3-3-3-3-3-3-3-3-3-3--|
C#||--3-3-3-3-3-3-3-3-3-3-3-3-3-3-3-5-2-2-2-2-2-2-2-2-2-2-2-2-2-2-2-2--|


D#||--------------------------------------|
A#||--------------------------------------|
F#||------------------5~--------------3~--|
C#||--0~--------------5~--------------3~--|
G#||--0~--------------3~--------------1~--|
C#||--0~----------------------------------|





____________________________________________________________________________________________________

                                     T12.   TORONTO (UNABRIDGED)
____________________________________________________________________________________________________





Tuning: Acoustic 1: Half-Step Down (D# G# C# F# A# D#)
        Acoustic 2: Half-Step Down (D# G# C# F# A# D#)
        Guitar 1: Drop C# (C# G# C# F# A# D#)


**Capo on Acoustic 1 & 2 - 3rd Fret**


Intro
Acoustic 1:
D#||---------------------------------|-------------------------------------|
A#||----------3----------------0~----|----------3----------------0~--------|
F#||--------0---0------4\2--0--2/4~--|--------0---0------4\2--0--2/4\2--0--|
C#||------4-------0~-----------------|------4-------0~---------------------|
G#||----2----------------------------|----2--------------------------------|
D#||--0------------------------------|--0----------------------------------|


D#||---------------------------------|-----------------------------------|
A#||----------3----------------0~----|--------0-------0-------0-------0--|
F#||--------0---0------4\2--0--2/4~--|------0-------0-------0-------0----|
C#||------4-------0~-----------------|----0-------0-------0-------0------| x3
G#||----2----------------------------|--3-------3-------2-------2--------|
D#||--0------------------------------|-----------------------------------|


D#||-----------------------------------|
A#||--------0-------0------------------|
F#||------0-------0--------------------|
C#||----2-------2-----5-5-5-5-5-5-5-5--|
G#||--0-------0-------5-5-5-5-5-5-5-5--|
D#||------------------3-3-3-3-3-3-3-3--|



Verse
Acoustic 1:
D#||--------------3----3-3-3-3-3-3-33--|-----------------------------------|
A#||--0-0---0-----3----3-3-3-3-3-3-33--|--0-0---0-----7~---7-7-7---8-8-----|
F#||--0-0---0-----0----0-0-0-0-0-0-00--|--0-0---0-----7~---7-7-7-7-7-7-----|
C#||--2-2---2---2-0----0-0-0-0-0-0-00--|--2-2---2---2-7~---7-7-7-7-7-7-xx--|
G#||--2-2---2---2-3----3-3-3-3-3-3-33--|--2-2---2---2-5~---5-5-5-5-5-5-xx--|
D#||--0-0---0---0----------------------|--0-0---0---0-5~---5-5-5-5-5-5-xx--|


D#||--------------3----3-3-3-3-3-3-33--|-----------------------------------|
A#||--0-0---0-----3----3-3-3-3-3-3-33--|--------------7~---7-7-7-7-7-7-----|
F#||--0-0---0-----0----0-0-0-0-0-0-00--|--4-4-4-4-4-4-7~---7-7-7-7-7-7-----|
C#||--2-2---2---2-0----0-0-0-0-0-0-00--|--5-5-5-5-5-5-7~---7-7-7-7-7-7-xx--| x2
G#||--2-2---2---2-3----3-3-3-3-3-3-33--|--5-5-5-5-5-5-5~---5-5-5-5-5-5-xx--|
D#||--0-0---0---0----------------------|--3-3-3-3-3-3------------------xx--|



Pre-Chorus
Acoustic 1:
D#||------------------------------------|--------------------------------------|
A#||--------------------------7-7-7-----|--5-5-5-55-7-7-7-77-8-8-8-8-8-8-8-----|
F#||--4-4-4-4-5-5-5-5-7-7-7-7-7-7-7-----|--5-5-5-55-7-7-7-77-9-9-9-9-9-9-9-----|
C#||--5-5-5-5-5-5-5-5-5-5-5-5-5-5-5-xx--|--5-5-5-55-7-7-7-77-9-9-9-9-9-9-9-xx--|
G#||--------------------------------xx--|--3-3-3-33-5-5-5-55-7-7-7-7-7-7-7-xx--|
D#||--------------------------------xx--|----------------------------------xx--|



Chorus
Acoustic 1:
D#||--0---0---0-0-0-0---0-0---0-0-0--00--|--3---3---3-3-3-3---3-3---3-3-3--33--|
A#||--0---0---0-0-0-0---0-0---0-0-0--00--|--3---3---3-3-3-3---3-3---3-3-3--33--|
F#||--0---0---0-0-0-0---0-0---0-0-0--00--|--4---4---4-4-4-4---4-4---4-4-4--44--|
C#||--2---2---2-2-2-2---2-2---2-2-2--22--|--5---5---5-5-5-5---5-5---5-5-5--55--| x2
G#||--2---2---2-2-2-2---2-2---2-2-2--22--|--5---5---5-5-5-5---5-5---5-5-5--55--|
D#||--0---0---0-0-0-0---0-0---0-0-0--00--|--3---3---3-3-3-3---3-3---3-3-3--33--|


D#||--3---3---3-3-3-3---3-3---3-3-3--33--|--0---0---0-0-0----------------------|
A#||--3---3---3-3-3-3---3-3---3-3-3--33--|--0---0---0-0-0-7---7-7---7-7-7--77--|
F#||--4---4---4-4-4-4---4-4---4-4-4--44--|--0---0---0-0-0-7---7-7---7-7-7--77--|
C#||--5---5---5-5-5-5---5-5---5-5-5--55--|--2---2---2-2-2-7---7-7---7-7-7--77--|
G#||--5---5---5-5-5-5---5-5---5-5-5--55--|--2---2---2-2-2-5---5-5---5-5-5--55--|
D#||--3---3---3-3-3-3---3-3---3-3-3--33--|--0---0---0-0-0----------------------|


D#||-------------------------------------|
A#||--8---8---8-8-8-7---7-7---7-7-7--77--|
F#||--9---9---9-9-9-7---7-7---7-7-7--77--|
C#||--9---9---9-9-9-7---7-7---7-7-7--77--|
G#||--7---7---7-7-7-5---5-5---5-5-5--55--|
D#||-------------------------------------|



Pre-Verse
Acoustic 1:
D#||-----------------------------------|-----------------------------------|
A#||--------0-------0-------0-------0--|--------0-------0------------------|
F#||------0-------0-------0-------0----|------0-------0--------------------|
C#||----0-------0-------0-------0------|----2-------2-----5-5-5-5-5-5-5-5--|
G#||--3-------3-------2-------2--------|--0-------0-------5-5-5-5-5-5-5-5--|
D#||-----------------------------------|------------------3-3-3-3-3-3-3-3--|



Verse
Acoustic 1:
D#||--------------3----3-3-3-3-3-3-33--|-----------------------------------|
A#||--0-0---0-----3----3-3-3-3-3-3-33--|--0-0---0-----7~---7-7-7---8-8-----|
F#||--0-0---0-----0----0-0-0-0-0-0-00--|--0-0---0-----7~---7-7-7-7-7-7-----|
C#||--2-2---2---2-0----0-0-0-0-0-0-00--|--2-2---2---2-7~---7-7-7-7-7-7-xx--|
G#||--2-2---2---2-3----3-3-3-3-3-3-33--|--2-2---2---2-5~---5-5-5-5-5-5-xx--|
D#||--0-0---0---0----------------------|--0-0---0---0-5~---5-5-5-5-5-5-xx--|


D#||--------------3----3-3-3-3-3-3-33--|-----------------------------------|
A#||--0-0---0-----3----3-3-3-3-3-3-33--|--------------7~---7-7-7-7-7-7-----|
F#||--0-0---0-----0----0-0-0-0-0-0-00--|--4-4-4-4-4-4-7~---7-7-7-7-7-7-----|
C#||--2-2---2---2-0----0-0-0-0-0-0-00--|--5-5-5-5-5-5-7~---7-7-7-7-7-7-xx--| x2
G#||--2-2---2---2-3----3-3-3-3-3-3-33--|--5-5-5-5-5-5-5~---5-5-5-5-5-5-xx--|
D#||--0-0---0---0----------------------|--3-3-3-3-3-3------------------xx--|


Acoustic 2:
D#||--7-----7-----7-----7-----7--------|--7-----7-----5-----5-----5--------|
A#||----8-----8-----8-----8-----8---8--|----8-----8-----8-----8-----8---8--|
F#||------7-----7-----7-----7-----7----|------7-----7-----7-----7-----7----|
C#||-----------------------------------|-----------------------------------|
G#||-----------------------------------|-----------------------------------|
D#||-----------------------------------|-----------------------------------|


D#||--7-----7-----8-----8-----8--------|--7-----7-----5-----5-----5--------|
A#||----8-----8-----8-----8-----8---8--|----8-----8-----8-----8-----8---8--|
F#||------7-----7-----7-----7-----7----|------7-----7-----7-----7-----7----|
C#||-----------------------------------|-----------------------------------|
G#||-----------------------------------|-----------------------------------|
D#||-----------------------------------|-----------------------------------|



Pre-Chorus
Acoustic 1:
D#||------------------------------------|--------------------------------------|
A#||--------------------------7-7-7-----|--5-5-5-55-7-7-7-77-8-8-8-8-8-8-8-----|
F#||--4-4-4-4-5-5-5-5-7-7-7-7-7-7-7-----|--5-5-5-55-7-7-7-77-9-9-9-9-9-9-9-----|
C#||--5-5-5-5-5-5-5-5-5-5-5-5-5-5-5-xx--|--5-5-5-55-7-7-7-77-9-9-9-9-9-9-9-xx--|
G#||--------------------------------xx--|--3-3-3-33-5-5-5-55-7-7-7-7-7-7-7-xx--|
D#||--------------------------------xx--|----------------------------------xx--|



Chorus
Acoustic 1:
D#||--0---0---0-0-0-0---0-0---0-0-0--00--|--3---3---3-3-3-3---3-3---3-3-3--33--|
A#||--0---0---0-0-0-0---0-0---0-0-0--00--|--3---3---3-3-3-3---3-3---3-3-3--33--|
F#||--0---0---0-0-0-0---0-0---0-0-0--00--|--4---4---4-4-4-4---4-4---4-4-4--44--|
C#||--2---2---2-2-2-2---2-2---2-2-2--22--|--5---5---5-5-5-5---5-5---5-5-5--55--| x2
G#||--2---2---2-2-2-2---2-2---2-2-2--22--|--5---5---5-5-5-5---5-5---5-5-5--55--|
D#||--0---0---0-0-0-0---0-0---0-0-0--00--|--3---3---3-3-3-3---3-3---3-3-3--33--|


D#||--3---3---3-3-3-3---3-3---3-3-3--33--|--0---0---0-0-0----------------------|
A#||--3---3---3-3-3-3---3-3---3-3-3--33--|--0---0---0-0-0-7---7-7---7-7-7--77--|
F#||--4---4---4-4-4-4---4-4---4-4-4--44--|--0---0---0-0-0-7---7-7---7-7-7--77--|
C#||--5---5---5-5-5-5---5-5---5-5-5--55--|--2---2---2-2-2-7---7-7---7-7-7--77--|
G#||--5---5---5-5-5-5---5-5---5-5-5--55--|--2---2---2-2-2-5---5-5---5-5-5--55--|
D#||--3---3---3-3-3-3---3-3---3-3-3--33--|--0---0---0-0-0----------------------|


D#||-------------------------------------|
A#||--8---8---8-8-8-7---7-7---7-7-7--77--|
F#||--9---9---9-9-9-7---7-7---7-7-7--77--|
C#||--9---9---9-9-9-7---7-7---7-7-7--77--|
G#||--7---7---7-7-7-5---5-5---5-5-5--55--|
D#||-------------------------------------|


Acoustic 2:
D#||------7-----7---------8-----8------|------7-----7---------5-----5------|
A#||----8-----8-----8---8-----8-----8--|----8-----8-----8---8-----8-----8--|
F#||--7-----7-----7---7-----7-----7----|--7-----7-----7---7-----7-----7----|
C#||-----------------------------------|-----------------------------------| x2
G#||-----------------------------------|-----------------------------------|
D#||-----------------------------------|-----------------------------------|


D#||------10----10--------10----10-----|------7-----7---------5-----5------|
A#||----8-----8-----8---8-----8-----8--|----8-----8-----8---8-----8-----8--|
F#||--7-----7-----7---7-----7-----7----|--7-----7-----7---7-----7-----7----|
C#||-----------------------------------|-----------------------------------|
G#||-----------------------------------|-----------------------------------|
D#||-----------------------------------|-----------------------------------|


D#||------7-----7---------5-----5------|
A#||----8-----8-----8---8-----8-----8--|
F#||--7-----7-----7---7-----7-----7----|
C#||-----------------------------------|
G#||-----------------------------------|
D#||-----------------------------------|



Interlude
Acoustic 1:
D#||---------------------------------|-------------------------------------|
A#||----------3----------------0~----|----------3----------------0~--------|
F#||--------0---0------4\2--0--2/4~--|--------0---0------4\2--0--2/4\2--0--|
C#||------4-------0~-----------------|------4-------0~---------------------|
G#||----2----------------------------|----2--------------------------------|
D#||--0------------------------------|--0----------------------------------|


D#||---------------------------------|-----------------------------------|
A#||----------3----------------0~----|--------0-------0-------0-------0--|
F#||--------0---0------4\2--0--2/4~--|------0-------0-------0-------0----|
C#||------4-------0~-----------------|----0-------0-------0-------0------|
G#||----2----------------------------|--3-------3-------2-------2--------|
D#||--0------------------------------|-----------------------------------|


D#||---------------------------------|-------------------------------------|
A#||----------3----------------0~----|----------3----------------0~--------|
F#||--------0---0------4\2--0--2/4~--|--------0---0------4\2--0--2/4\2--0--|
C#||------4-------0~-----------------|------4-------0~---------------------|
G#||----2----------------------------|----2--------------------------------|
D#||--0------------------------------|--0----------------------------------|


D#||---------------------------------|-----------------------------------|
A#||----------3----------------0~----|--------0-------0-------0-------0--|
F#||--------0---0------4\2--0--2/4~--|------0-------0-------0-------0----|
C#||------4-------0~-----------------|----0-------0-------0-------0------|
G#||----2----------------------------|--3-------3-------5-------5--------|
D#||--0------------------------------|-----------------------------------|


D#||------------------------------------|
A#||--------0-------0--------0-0-0-0-0--|
F#||------0-------0--------2-2-2-2-2-2--|
C#||----5-------5------2-2-2-2-2-2-2-2--|
G#||--6-------6--------2-2-2-2-2-2-2-2--|
D#||-------------------0-0-0-0-0-0-0-0--|


Guitar 1:
D#||-------------------------------------------------------------------|
A#||-------------------------------------------------------------------|
F#||-------------------------------------------------------------------|
C#||--1-1-1-1-1-1-1-1-3-3-3-3-3-3-3-3-4-4-4-4-4-4-4-4-5-5-5-5-5-5-5-5--|
G#||--1-1-1-1-1-1-1-1-3-3-3-3-3-3-3-3-5-5-5-5-5-5-5-5-5-5-5-5-5-5-5-5--|
C#||--1-1-1-1-1-1-1-1-3-3-3-3-3-3-3-3-4-4-4-4-4-4-4-4-5-5-5-5-5-5-5-5--|
      . . . . . . . . . . . . . . . . . . . . . . . . . . .



Bridge
Acoustic 1:
D#||---------------------------------|-------------------------------------------|
A#||---------------------------------|-------------------------------------------|
F#||--4----4---4-5---5-4----4-4-4-4--|--11----11---11-11---11-11----11-11-11-11--|
C#||--x----x---x-x---x-x----x-x-x-x--|--x-----x----x--x----x--x-----x--x--x--x---|
G#||--2----2---2-3---3-2----2-2-2-2--|--9-----9----9--9----9--9-----9--9--9--9---|
D#||---------------------------------|-------------------------------------------|


D#||-----------------------------------|-----------------------------------|
A#||-----------------------------------|-----------------------------------|
F#||--9-9-9-9-9-9-9-9-7-7-7-7-7-7-7-7--|--9-9-9-9-9-9-9-9-9-9-9-9-----11~--|
C#||--x-x-x-x-x-x-x-x-x-x-x-x-x-x-x-x--|--x-x-x-x-x-x-x-x-x-x-x-x---x-x~---|
G#||--7-7-7-7-7-7-7-7-5-5-5-5-5-5-5-5--|--7-7-7-7-7-7-7-7-7-7-7-7---x-9~---|
D#||-----------------------------------|----------------------------x------|


D#||---------------------------------|-------------------------------------------|
A#||---------------------------------|-------------------------------------------|
F#||--4----4---4-5---5-4----4-4-4-4--|--11----11---11-11---11-11----11-11-11-11--|
C#||--x----x---x-x---x-x----x-x-x-x--|--x-----x----x--x----x--x-----x--x--x--x---|
G#||--2----2---2-3---3-2----2-2-2-2--|--9-----9----9--9----9--9-----9--9--9--9---|
D#||---------------------------------|-------------------------------------------|


D#||-----------------------------------|-----------------------------------|
A#||-----------------------------------|-----------------------------------|
F#||--9-9-9-9-9-9-9-9-7-7-7-7-7-7-7-7--|--9-9-9-9-9-9-9-9-8-8-8-8-8-8-8-8--|
C#||--x-x-x-x-x-x-x-x-x-x-x-x-x-x-x-x--|--x-x-x-x-x-x-x-x-x-x-x-x-x-x-x-x--|
G#||--7-7-7-7-7-7-7-7-5-5-5-5-5-5-5-5--|--7-7-7-7-7-7-7-7-6-6-6-6-6-6-6-6--|
D#||-----------------------------------|-----------------------------------|


D#||---------------------------------|-------------------------------------------|
A#||---------------------------------|-------------------------------------------|
F#||--4----4---4-5---5-4----4-4-4-4--|--11----11---11-11---11-11----11-11-11-11--|
C#||--x----x---x-x---x-x----x-x-x-x--|--x-----x----x--x----x--x-----x--x--x--x---|
G#||--2----2---2-3---3-2----2-2-2-2--|--9-----9----9--9----9--9-----9--9--9--9---|
D#||---------------------------------|-------------------------------------------|


D#||-----------------------------------|--------------------------------------|
A#||-----------------------------------|--------------------------------------|
F#||--9-9-9-9-9-9-9-9-7-7-7-7-7-7-7-7--|--9-9-9-9-9-9-9-9-11-11-11-11----11~--|
C#||--x-x-x-x-x-x-x-x-x-x-x-x-x-x-x-x--|--x-x-x-x-x-x-x-x-x--x--x--x---x-x~---|
G#||--7-7-7-7-7-7-7-7-5-5-5-5-5-5-5-5--|--7-7-7-7-7-7-7-7-9--9--9--9---x-9~---|
D#||-----------------------------------|-------------------------------x------|


Guitar 1:
D#||---------------------------------|---------------------------------|
A#||---------------------------------|---------------------------------|
F#||---------------------------------|---------------------------------|
C#||--8----8---8-8---8-8----8-8-8-8--|--0----0---0-0---0-0----0-0-0-0--|
G#||--8----8---8-8---8-8----8-8-8-8--|--0----0---0-0---0-0----0-0-0-0--|
C#||--8----8---8-8---8-8----8-8-8-8--|--0----0---0-0---0-0----0-0-0-0--|


D#||-----------------------------------|----------------------------------|
A#||-----------------------------------|----------------------------------|
F#||-----------------------------------|----------------------------------|
C#||--5-5-5-5-5-5-5-5-0-0-0-0-0-0-0-0--|--1-1-1-1-1-1-1-1-1-1-1-1---x-3~--|
G#||--5-5-5-5-5-5-5-5-0-0-0-0-0-0-0-0--|--1-1-1-1-1-1-1-1-1-1-1-1---x-3~--|
C#||--5-5-5-5-5-5-5-5-0-0-0-0-0-0-0-0--|--1-1-1-1-1-1-1-1-1-1-1-1---x-3~--|


D#||---------------------------------|---------------------------------|
A#||---------------------------------|---------------------------------|
F#||---------------------------------|---------------------------------|
C#||--8----8---8-8---8-8----8-8-8-8--|--0----0---0-0---0-0----0-0-0-0--|
G#||--8----8---8-8---8-8----8-8-8-8--|--0----0---0-0---0-0----0-0-0-0--|
C#||--8----8---8-8---8-8----8-8-8-8--|--0----0---0-0---0-0----0-0-0-0--|


D#||-----------------------------------|-----------------------------------|
A#||-----------------------------------|-----------------------------------|
F#||-----------------------------------|--8-8-8-8-8-8-8-8-8-8-8-8-8-8-8-8--|
C#||--5-5-5-5-5-5-5-5-0-0-0-0-0-0-0-0--|--8-8-8-8-8-8-8-8-8-8-8-8-8-8-8-8--|
G#||--5-5-5-5-5-5-5-5-0-0-0-0-0-0-0-0--|--6-6-6-6-6-6-6-6-6-6-6-6-6-6-6-6--|
C#||--5-5-5-5-5-5-5-5-0-0-0-0-0-0-0-0--|-----------------------------------|


D#||---------------------------------|---------------------------------|
A#||---------------------------------|---------------------------------|
F#||---------------------------------|---------------------------------|
C#||--8----8---8-8---8-8----8-8-8-8--|--0----0---0-0---0-0----0-0-0-0--|
G#||--8----8---8-8---8-8----8-8-8-8--|--0----0---0-0---0-0----0-0-0-0--|
C#||--8----8---8-8---8-8----8-8-8-8--|--0----0---0-0---0-0----0-0-0-0--|


D#||-----------------------------------|----------------------------------|
A#||-----------------------------------|----------------------------------|
F#||-----------------------------------|----------------------------------|
C#||--1-1-1-1-1-1-1-1-0-0-0-0-0-0-0-0--|--1-1-1-1-1-1-1-1-3-3-3-3---x-3~--|
G#||--1-1-1-1-1-1-1-1-0-0-0-0-0-0-0-0--|--1-1-1-1-1-1-1-1-3-3-3-3---x-3~--|
C#||--1-1-1-1-1-1-1-1-0-0-0-0-0-0-0-0--|--1-1-1-1-1-1-1-1-3-3-3-3---x-3~--|



Outro
Acoustic 1:
D#||---------------------------------|-------------------------------------------|
A#||---------------------------------|-------------------------------------------|
F#||--4----4---4-5---5-4----4-4-4-4--|--11----11---11-11---11-11----11-11-11-11--|
C#||--x----x---x-x---x-x----x-x-x-x--|--x-----x----x--x----x--x-----x--x--x--x---|
G#||--2----2---2-3---3-2----2-2-2-2--|--9-----9----9--9----9--9-----9--9--9--9---|
D#||---------------------------------|-------------------------------------------|


D#||-----------------------------------|-----------------------------------|
A#||-----------------------------------|-----------------------------------|
F#||--9-9-9-9-9-9-9-9-7-7-7-7-7-7-7-7--|--9-9-9-9-9-9-9-9-7-7-7-7-7-7-7-7--|
C#||--x-x-x-x-x-x-x-x-x-x-x-x-x-x-x-x--|--x-x-x-x-x-x-x-x-x-x-x-x-x-x-x-x--|
G#||--7-7-7-7-7-7-7-7-5-5-5-5-5-5-5-5--|--7-7-7-7-7-7-7-7-5-5-5-5-5-5-5-5--|
D#||-----------------------------------|-----------------------------------|


D#||------------------------------------------------------------|
A#||------------------------------------------------------------|
F#||--12-12-12-12-12-12-12--12--11--11--11--11--11--11--11--11--|
C#||--x--x--x--x--x--x--x---x---x---x---x---x---x---x---x---x---|
G#||--10-10-10-10-10-10-10--10--9---9---9---9---9---9---9---9---|
C#||------------------------------------------------------------|


D#||-----------------------------------------------------------------------------------|
A#||-----------------------------------------------------------------------------------|
F#||--12--12--12--12--12---12---12---12---14---14---14---14---14---14---14---14---12~--|
C#||--x---x---x---x---x----x----x----x----x----x----x----x----x----x----x----x----x----|
G#||--10--10--10--10--10---10---10---10---12---12---12---12---12---12---12---12---10~--|
C#||-----------------------------------------------------------------------------------|


D#||--------------------|
A#||--4~----------------|
F#||--5~------------0~--|
C#||--5~------------2~--|
G#||--3~------------2~--|
D#||----------------0~--|


Guitar 1:
D#||---------------------------------|---------------------------------|
A#||---------------------------------|---------------------------------|
F#||---------------------------------|---------------------------------|
C#||--8----8---8-8---8-8----8-8-8-8--|--0----0---0-0---0-0----0-0-0-0--|
G#||--8----8---8-8---8-8----8-8-8-8--|--0----0---0-0---0-0----0-0-0-0--|
C#||--8----8---8-8---8-8----8-8-8-8--|--0----0---0-0---0-0----0-0-0-0--|


D#||-----------------------------------|-----------------------------------|
A#||-----------------------------------|-----------------------------------|
F#||-----------------------------------|-----------------------------------|
C#||--5-5-5-5-5-5-5-5-0-0-0-0-0-0-0-0--|--5-5-5-5-5-5-5-5-0-0-0-0-0-0-0-0--|
G#||--5-5-5-5-5-5-5-5-0-0-0-0-0-0-0-0--|--5-5-5-5-5-5-5-5-0-0-0-0-0-0-0-0--|
C#||--5-5-5-5-5-5-5-5-0-0-0-0-0-0-0-0--|--5-5-5-5-5-5-5-5-0-0-0-0-0-0-0-0--|


D#||-------------------------------------------------------------------|
A#||-------------------------------------------------------------------|
F#||-------------------------------------------------------------------|
C#||--5-5-5-5-5-5-5--5--4--4--4--4--4--4--4--4--3--3--3--3--3---3---3--|
G#||--5-5-5-5-5-5-5--5--5--5--5--5--5--5--5--5--3--3--3--3--3---3---3--|
C#||--5-5-5-5-5-5-5--5--4--4--4--4--4--4--4--4--3--3--3--3--3---3---3--|


D#||---------------------------------------|
A#||---------------------------------------|
F#||---------------------------------------|
C#||--3---3---3---3---3---3---3---3----0~--|
G#||--3---3---3---3---3---3---3---3----0~--|
C#||--3---3---3---3---3---3---3---3----0~--|





Tablature Legend
----------------
 h   hammer-on
 p   pull-off
 b   bend
 pb  pre-bend
 r   release bend
 ~   hold / vibrato
 .   palm mute
 /   slide up
 \   slide down
 *   pinch harmonic
 '   natural harmonic
 x   mute note
 T   tap
Добавлено: 31.10.2015
Другие материалы по этой песне:
  • Аккорды и текст

Страница создана 31.10.2015
http://primanota.ru/silverstein/i-am-alive-in-everything-i-touch-album-chords.htm
Привет, Гость.
Предлагаем пройти революционный курс по гитаре.
Подарок от PrimaNota.Ru, забирай!