PrimaNota.ru - самый крупный в мире бесплатный архив песенных текстов, аккордов, табулатур и нот


Silverstein - The Continual Condition - таба, бас-таба, видео

Регистрация Запомнить меня
Войти через:  Facebook Google Twitter Vk Yandex Mail.ru

Silverstein - The Continual Condition - таба, бас-таба, видео

Печатать
Просмотров: 124
Tabbed by: Joshua Garcia (joshuag523@aol.com)

Tabs for the song: The Continual Condition by Silverstein
Please rate and let me know if you have any corrections. Thank you.


** For my tab of the whole album, go here:
http://tabs.ultimate-guitar.com/s/silverstein/i_am_alive_in_everything_i_touch_album_tab.htm **


Tuning: Drop C# (C# G# C# F# A# D#)


Intro
Guitar 1:
D#||-------------------------------------------------------------------------|
A#||-------------------------------------------------------------------------|
F#||--7-7-7-9-9-9-10-10-10-9-9-9-7-7-7-7-7-7-7-9-9-9-10-10-10-9-9-9-7-7-7-7--|
C#||--0-0-0-0-0-0-0--0--0--0-0-0-0-0-0-0-8-8-8-8-8-8-8--8--8--8-8-8-8-8-8-8--|
G#||-------------------------------------------------------------------------|
C#||-------------------------------------------------------------------------|
      . . . . . . .  .  .  . . . . . . . . . . . . . .  .  .  . . . . . . .

D#||-------------------------------------------------------------------------|
A#||-------------------------------------------------------------------------|
F#||--9--9--9--10-10-10-12-12-12-10-10-10-9--9--9--9---10-10-10-10-10-10-9~--|
C#||--10-10-10-10-10-10-10-10-10-10-10-10-10-10-10-10--8--8--8--8--8--8------|
G#||-------------------------------------------------------------------------|
C#||-------------------------------------------------------------------------|
      .  .  .  .  .  .  .  .  .  .  .  .  .  .  .  .   .  .  .  .  .  .



Pre-Verse
Guitar 1/2:
D#||--------------------------------------------------------------|
A#||--------------------------------------------------------------|
F#||--------------------------------------------------------------|
C#||---------------------------------------8----------------------|
G#||---------------------------------------8----------------------|
C#||--0-----12\-----0-7-10-8---7-5-7-8-----8-----3-5-5-3-5-0-3-5--|


D#||--------------------------------------------------------------|
A#||--------------------------------------------------------------|
F#||--------------------------------------------------------------|
C#||--------12\----------------------------8----x-3---2---3-/-10--|
G#||--------12\----------------------------8----x-3---3---3-/-10--|
C#||--0-----12\-----0-7-10-8---7-5-7-8-----8----x-3---2---3-/-10--|


D#||--------------------------------------------------------------|
A#||--------------------------------------------------------------|
F#||--------------------------------------------------------------|
C#||--12------0----------------------------8----------------------|
G#||--12------0----------------------------8----------------------|
C#||--12------0-----0-7-10-8---7-5-7-8-----8-----3-5-5-3-5-0-3-5--|


D#||--------------------------------------------------------------|
A#||--------------------------------------------------------------|
F#||--------------------------------------------------------------|
C#||---------------------------------------8----x-3---2---3-/-10--|
G#||---------------------------------------8----x-3---3---3-/-10--|
C#||--0-----12\-----0-7-10-8---7-5-7-8-----8----x-3---2---3-/-10--|



Verse
Guitar 1/2:
D#||-------------------------------------------------------------------|
A#||-------------------------------------------------------------------|
F#||-------------------------------------------------------------------|
C#||--3-3-3-3-3-3-3-3-5-5-5-5-7-7-7-7-2-2-2-2-2-2-2-2-3-3-3-3-5-5-5-5--|
G#||--5-5-5-5-5-5-5-5-5-5-5-5-5-5-5-3-3-3-3-3-3-3-3-3-3-3-3-3-3-3-3-3--|
C#||-------------------------------------------------------------------|
      . . . . . . . . . . . . . . . . . . . . . . . . . . . . . . . .

D#||-------------------------------------------------------------------|
A#||-------------------------------------------------------------------|
F#||-------------------------------------------------------------------|
C#||--3-3-3-3-3-3-3-3-5-5-5-5-3-3-3-3-2-2-2-2-2-2-2-2-3-3-3-3-5-5-5-5--|
G#||--1-1-1-1-1-1-1-1-1-1-1-1-1-1-1-3-3-3-3-3-3-3-3-3-3-3-3-3-3-3-3-3--|
C#||-------------------------------------------------------------------|
      . . . . . . . . . . . . . . . . . . . . . . . . . . . . . . . .



Pre-Chorus
Guitar 1:
D#||---------------------------------------------------------|
A#||---------------------------------------------------------|
F#||---------------------------------------------------------|
C#||--/7---5--3-2~----/5--3--2-3~---5~----2---3---5-5/7---5--|
G#||---------------------------------------------------------|
C#||---------------------------------------------------------|


D#||-----------------------------------|
A#||-----------------------------------|
F#||------------------5-5-5-5----------|
C#||--7-7-7-7-7-7-7-7---------3h5-5-5--|
G#||-----------------------------------|
C#||-----------------------------------|


Guitar 2:
D#||-------------------------------------------------------------------|
A#||-------------------------------------------------------------------|
F#||-------------------------------------------------------------------|
C#||--3-3-3-3-3-3-3-3-5-5-5-5-7-7-7-7-2-2-2-2-2-2-2-2-3-3-3-3-5-5-5-5--|
G#||--5-5-5-5-5-5-5-5-5-5-5-5-5-5-5-3-3-3-3-3-3-3-3-3-3-3-3-3-3-3-3-3--|
C#||-------------------------------------------------------------------|
      . . . . . . . . . . . . . . . . . . . . . . . . . . . . . . . .

D#||-------------------------------------------------------------------|
A#||-------------------------------------------------------------------|
F#||-------------------------------------------------------------------|
C#||--3-3-3-3-3-3-3-3-5-5-5-5-3-3-3-3-2-2-2-2-2-2-2-2-3-3-3-3-3h5-5-5--|
G#||--1-1-1-1-1-1-1-1-1-1-1-1-1-1-1-3-3-3-3-3-3-3-3-3-3-3-3-3----------|
C#||-------------------------------------------------------------------|
      . . . . . . . . . . . . . . . . . . . . . . . .



Chorus
Guitar 1:
D#||-------------------------------------------------------------------------|
A#||-------------------------------------------------------------------------|
F#||--7-7-7-9-9-9-10-10-10-9-9-9-7-7-7-7-7-7-7-9-9-9-10-10-10-9-9-9-7-7-7-7--|
C#||--0-0-0-0-0-0-0--0--0--0-0-0-0-0-0-0-8-8-8-8-8-8-8--8--8--8-8-8-8-8-8-8--|
G#||-------------------------------------------------------------------------|
C#||-------------------------------------------------------------------------|


D#||-----------------------------------------------------------------------------------------|
A#||-----------------------------------------------------------------------------------------|
F#||--9--9--9--10-10-10-12-12-12-10-10-10-9--9--9--9---10-10-10-10----x-9-9-9-9~----9-9-9-9--|
C#||--10-10-10-10-10-10-10-10-10-10-10-10-10-10-10-10--8--8--8--8-----x-7-7-7-7~----7-7-7-7--|
G#||-----------------------------------------------------------------------------------------|
C#||-----------------------------------------------------------------------------------------|


D#||-------------------------------------------------------------------------|
A#||-------------------------------------------------------------------------|
F#||--7-7-7-9-9-9-10-10-10-9-9-9-7-7-7-7-7-7-7-9-9-9-10-10-10-9-9-9-7-7-7-7--|
C#||--0-0-0-0-0-0-0--0--0--0-0-0-0-0-0-0-8-8-8-8-8-8-8--8--8--8-8-8-8-8-8-8--|
G#||-------------------------------------------------------------------------|
C#||-------------------------------------------------------------------------|


D#||------------------------------------------------------------------------------------------|
A#||------------------------------------------------------------------------------------------|
F#||--9--9--9--10-10-10-12-12-12-10-10-10-9--9--9--9---10-10-10-10----x-9-9-9-9----x-9-9-9-9--|
C#||--10-10-10-10-10-10-10-10-10-10-10-10-10-10-10-10--8--8--8--8-----x-7-7-7-7----x-7-7-7-7--|
G#||------------------------------------------------------------------------------------------|
C#||------------------------------------------------------------------------------------------|


Guitar 2:
D#||----------------------------------------------------|
A#||----------------------------------------------------|
F#||----------------------------------------------------|
C#||--0---0-0-0-0---0---0-0------8---8-8-8-8---8---8-8--|
G#||--0---0-0-0-0---0---0-0------8---8-8-8-8---8---8-8--|
C#||--0---0-0-0-0---0---0-0------8---8-8-8-8---8---8-8--|


D#||--------------------------------------------|
A#||--------------------------------------------|
F#||--------------------------------------------|
C#||--10---10-10---10-10----10-10---10-10-10-x--|
G#||--10---10-10---10-10----10-10---10-10-10-x--|
C#||--10---10-10---10-10----10-10---10-10-10-x--|


D#||-----------------------------------|
A#||-----------------------------------|
F#||-----------------------------------|
C#||--8-----8---x-7-----7-----7-7-7-7--|
G#||--8-----8---x-7-----7-----7-7-7-7--|
C#||--8-----8---x-7-----7-----7-7-7-7--|


D#||----------------------------------------------------|
A#||----------------------------------------------------|
F#||----------------------------------------------------|
C#||--0---0-0-0-0---0---0-0------8---8-8-8-8---8---8-8--|
G#||--0---0-0-0-0---0---0-0------8---8-8-8-8---8---8-8--|
C#||--0---0-0-0-0---0---0-0------8---8-8-8-8---8---8-8--|


D#||--------------------------------------------|
A#||--------------------------------------------|
F#||--------------------------------------------|
C#||--10---10-10---10-10----10-10---10-10-10-x--|
G#||--10---10-10---10-10----10-10---10-10-10-x--|
C#||--10---10-10---10-10----10-10---10-10-10-x--|


D#||-----------------------------------|
A#||-----------------------------------|
F#||-----------------------------------|
C#||--8-8-8-8---x-7-7-7-7---x-7-7-7-7--|
G#||--8-8-8-8---x-7-7-7-7---x-7-7-7-7--|
C#||--8-8-8-8---x-7-7-7-7---x-7-7-7-7--|



Pre-Verse
Guitar 1/2:
D#||--------------------------------------------------------------|
A#||--------------------------------------------------------------|
F#||--------------------------------------------------------------|
C#||---------------------------------------8----------------------|
G#||---------------------------------------8----------------------|
C#||--0-----12\-----0-7-10-8---7-5-7-8-----8-----3-5-5-3-5-0-3-5--|


D#||--------------------------------------------------------------|
A#||--------------------------------------------------------------|
F#||--------------------------------------------------------------|
C#||--------12\----------------------------8----x-3---2---3-/-10--|
G#||--------12\----------------------------8----x-3---3---3-/-10--|
C#||--0-----12\-----0-7-10-8---7-5-7-8-----8----x-3---2---3-/-10--|



Verse
Guitar 1:
D#||----------------------------------------------|
A#||----------------------------------------------|
F#||--10~--------10p9~--------9-\7~--------7/9~---|
C#||--10~--------10~----------10\8~--------8/10~--|
G#||----------------------------------------------|
C#||----------------------------------------------|


Guitar 2:
D#||-------------------------------------------------------------------|
A#||-------------------------------------------------------------------|
F#||-------------------------------------------------------------------|
C#||--3-3-3-3-3-3-3-3-5-5-5-5-7-7-7-7-2-2-2-2-2-2-2-2-3-3-3-3-5-5-5-5--|
G#||--5-5-5-5-5-5-5-5-5-5-5-5-5-5-5-3-3-3-3-3-3-3-3-3-3-3-3-3-3-3-3-3--|
C#||-------------------------------------------------------------------|
      . . . . . . . . . . . . . . . . . . . . . . . . . . . . . . . .

D#||-------------------------------------------------------------------|
A#||-------------------------------------------------------------------|
F#||-------------------------------------------------------------------|
C#||--3-3-3-3-3-3-3-3-5-5-5-5-3-3-3-3-2-2-2-2-2-2-2-2-3-3-3-3-5-5-5-5--|
G#||--1-1-1-1-1-1-1-1-1-1-1-1-1-1-1-3-3-3-3-3-3-3-3-3-3-3-3-3-3-3-3-3--|
C#||-------------------------------------------------------------------|
      . . . . . . . . . . . . . . . . . . . . . . . . . . . . . . . .



Pre-Chorus
Guitar 1:
D#||------------------------------------------------------------------|
A#||------------------------------------------------------------------|
F#||---------/5-------------------------------------------------------|
C#||--/7----------5~-----5/7----3~------2---2/5~-----3-3-3-3-3h5-5-5--|
G#||------------------------------------------------------------------|
C#||------------------------------------------------------------------|


Guitar 2:
D#||-------------------------------------------------------------------|
A#||-------------------------------------------------------------------|
F#||-------------------------------------------------------------------|
C#||--3-3-3-3-3-3-3-3-5-5-5-5-7-7-7-7-2-2-2-2-2-2-2-2-3-3-3-3-5-5-5-5--|
G#||--5-5-5-5-5-5-5-5-5-5-5-5-5-5-5-3-3-3-3-3-3-3-3-3-3-3-3-3-3-3-3-3--|
C#||-------------------------------------------------------------------|
      . . . . . . . . . . . . . . . . . . . . . . . . . . . . . . . .

D#||-------------------------------------------------------------------|
A#||-------------------------------------------------------------------|
F#||-------------------------------------------------------------------|
C#||--3-3-3-3-3-3-3-3-5-5-5-5-3-3-3-3-2-2-2-2-2-2-2-2-3-3-3-3-3h5-5-5--|
G#||--1-1-1-1-1-1-1-1-1-1-1-1-1-1-1-3-3-3-3-3-3-3-3-3-3-3-3-3----------|
C#||-------------------------------------------------------------------|
      . . . . . . . . . . . . . . . . . . . . .


Guitar 3 (Dub):
D#||----------------------------------------------|
A#||----------------------------------------------|
F#||--10~--------10p9~--------9-\7~--------7/9~---|
C#||--10~--------10~----------10\8~--------8/10~--|
G#||----------------------------------------------|
C#||----------------------------------------------|



Chorus
Guitar 1:
D#||-------------------------------------------------------------------------|
A#||-------------------------------------------------------------------------|
F#||--7-7-7-9-9-9-10-10-10-9-9-9-7-7-7-7-7-7-7-9-9-9-10-10-10-9-9-9-7-7-7-7--|
C#||--0-0-0-0-0-0-0--0--0--0-0-0-0-0-0-0-8-8-8-8-8-8-8--8--8--8-8-8-8-8-8-8--|
G#||-------------------------------------------------------------------------|
C#||-------------------------------------------------------------------------|


D#||-----------------------------------------------------------------------------------------|
A#||-----------------------------------------------------------------------------------------|
F#||--9--9--9--10-10-10-12-12-12-10-10-10-9--9--9--9---10-10-10-10----x-9-9-9-9~----9-9-9-9--|
C#||--10-10-10-10-10-10-10-10-10-10-10-10-10-10-10-10--8--8--8--8-----x-7-7-7-7~----7-7-7-7--|
G#||-----------------------------------------------------------------------------------------|
C#||-----------------------------------------------------------------------------------------|


D#||-------------------------------------------------------------------------|
A#||-------------------------------------------------------------------------|
F#||--7-7-7-9-9-9-10-10-10-9-9-9-7-7-7-7-7-7-7-9-9-9-10-10-10-9-9-9-7-7-7-7--|
C#||--0-0-0-0-0-0-0--0--0--0-0-0-0-0-0-0-8-8-8-8-8-8-8--8--8--8-8-8-8-8-8-8--|
G#||-------------------------------------------------------------------------|
C#||-------------------------------------------------------------------------|


D#||------------------------------------------------------------------------------------------|
A#||------------------------------------------------------------------------------------------|
F#||--9--9--9--10-10-10-12-12-12-10-10-10-9--9--9--9---10-10-10-10----x-9-9-9-9----x-9-9-9-9--|
C#||--10-10-10-10-10-10-10-10-10-10-10-10-10-10-10-10--8--8--8--8-----x-7-7-7-7----x-7-7-7-7--|
G#||------------------------------------------------------------------------------------------|
C#||------------------------------------------------------------------------------------------|


Guitar 2:
D#||----------------------------------------------------|
A#||----------------------------------------------------|
F#||----------------------------------------------------|
C#||--0---0-0-0-0---0---0-0------8---8-8-8-8---8---8-8--|
G#||--0---0-0-0-0---0---0-0------8---8-8-8-8---8---8-8--|
C#||--0---0-0-0-0---0---0-0------8---8-8-8-8---8---8-8--|


D#||--------------------------------------------|
A#||--------------------------------------------|
F#||--------------------------------------------|
C#||--10---10-10---10-10----10-10---10-10-10-x--|
G#||--10---10-10---10-10----10-10---10-10-10-x--|
C#||--10---10-10---10-10----10-10---10-10-10-x--|


D#||-----------------------------------|
A#||-----------------------------------|
F#||-----------------------------------|
C#||--8-----8---x-7-----7-----7-7-7-7--|
G#||--8-----8---x-7-----7-----7-7-7-7--|
C#||--8-----8---x-7-----7-----7-7-7-7--|


D#||----------------------------------------------------|
A#||----------------------------------------------------|
F#||----------------------------------------------------|
C#||--0---0-0-0-0---0---0-0------8---8-8-8-8---8---8-8--|
G#||--0---0-0-0-0---0---0-0------8---8-8-8-8---8---8-8--|
C#||--0---0-0-0-0---0---0-0------8---8-8-8-8---8---8-8--|


D#||--------------------------------------------|
A#||--------------------------------------------|
F#||--------------------------------------------|
C#||--10---10-10---10-10----10-10---10-10-10-x--|
G#||--10---10-10---10-10----10-10---10-10-10-x--|
C#||--10---10-10---10-10----10-10---10-10-10-x--|


D#||-----------------------------------|
A#||-----------------------------------|
F#||-----------------------------------|
C#||--8-8-8-8---x-7-7-7-7---x-7-7-7-7--|
G#||--8-8-8-8---x-7-7-7-7---x-7-7-7-7--|
C#||--8-8-8-8---x-7-7-7-7---x-7-7-7-7--|



Breakdown
Guitar 1/2:
D#||-------|--------------|--------------|
A#||-------|--------------|--------------|
F#||-------|--------------|--------------|
C#||--0~---|--(feedback)--|--------------|
G#||--0~---|--------------|--\\pick-\\---|
C#||--0~---|--------------|---\\slide\\--|



Interlude
Guitar 1:
D#||-------------------------------------------------------------------------|
A#||-------------------------------------------------------------------------|
F#||--7-7-7-9-9-9-10-10-10-9-9-9-7-7-7-7-7-7-7-9-9-9-10-10-10-9-9-9-7-7-7-7--|
C#||--0-0-0-0-0-0-0--0--0--0-0-0-0-0-0-0-8-8-8-8-8-8-8--8--8--8-8-8-8-8-8-8--|
G#||-------------------------------------------------------------------------|
C#||-------------------------------------------------------------------------|
      . . . . . . .  .  .  . . . . . . . . . . . . . .  .  .  . . . . . . .

D#||--------------------------------------------------------------------------|
A#||--------------------------------------------------------------------------|
F#||--9--9--9--10-10-10-12-12-12-10-10-10-9--9--9--9---10-10-10-10-10-10-9-9--|
C#||--10-10-10-10-10-10-10-10-10-10-10-10-10-10-10-10--8--8--8--8--8--8--7-7--|
G#||--------------------------------------------------------------------------|
C#||--------------------------------------------------------------------------|
      .  .  .  .  .  .  .  .  .  .  .  .  .  .  .  .   .  .  .  .  .  .  . .


Guitar 1/2:
D#||-------------------|
A#||-------------------|
F#||--9-9-9-9-9-9-9-9--|
C#||--7-7-7-7-7-7-7-7--|
G#||-------------------|
C#||-------------------|
      . .

D#||-------------------------------------------------------------------------|
A#||-------------------------------------------------------------------------|
F#||--7-7-7-9-9-9-10-10-10-9-9-9-7-7-7-7-7-7-7-9-9-9-10-10-10-9-9-9-7-7-7-7--|
C#||--0-0-0-0-0-0-0--0--0--0-0-0-0-0-0-0-8-8-8-8-8-8-8--8--8--8-8-8-8-8-8-8--|
G#||-------------------------------------------------------------------------|
C#||-------------------------------------------------------------------------|
      . . . . . . .  .  .  . . . . . . . . . . . . . .  .  .  . . . . . . .

D#||-------------------------------------------------------------------------|
A#||-------------------------------------------------------------------------|
F#||--9--9--9--10-10-10-12-12-12-10-10-10-9--9--9--9---10-10-10-10----x-9~---|
C#||--10-10-10-10-10-10-10-10-10-10-10-10-10-10-10-10--8--8--8--8-----x-8~---|
G#||-------------------------------------------------------------------------|
C#||-------------------------------------------------------------------------|
      .  .  .  .  .  .  .  .  .  .  .  .  .  .  .  .


D#||--------------|
A#||--------------|
F#||--------------|
C#||--------------|
G#||--\\pick-\\---|
C#||---\\slide\\--|



Chorus
Guitar 1:
D#||-------------------------------------------------------------------------|
A#||-------------------------------------------------------------------------|
F#||--7-7-7-9-9-9-10-10-10-9-9-9-7-7-7-7-7-7-7-9-9-9-10-10-10-9-9-9-7-7-7-7--|
C#||--0-0-0-0-0-0-0--0--0--0-0-0-0-0-0-0-8-8-8-8-8-8-8--8--8--8-8-8-8-8-8-8--|
G#||-------------------------------------------------------------------------|
C#||-------------------------------------------------------------------------|


D#||-----------------------------------------------------------------------------------------|
A#||-----------------------------------------------------------------------------------------|
F#||--9--9--9--10-10-10-12-12-12-10-10-10-9--9--9--9---10-10-10-10----x-9-9-9-9~----9-9-9-9--|
C#||--10-10-10-10-10-10-10-10-10-10-10-10-10-10-10-10--8--8--8--8-----x-7-7-7-7~----7-7-7-7--|
G#||-----------------------------------------------------------------------------------------|
C#||-----------------------------------------------------------------------------------------|


D#||-------------------------------------------------------------------------|
A#||-------------------------------------------------------------------------|
F#||--7-7-7-9-9-9-10-10-10-9-9-9-7-7-7-7-7-7-7-9-9-9-10-10-10-9-9-9-7-7-7-7--|
C#||--0-0-0-0-0-0-0--0--0--0-0-0-0-0-0-0-8-8-8-8-8-8-8--8--8--8-8-8-8-8-8-8--|
G#||-------------------------------------------------------------------------|
C#||-------------------------------------------------------------------------|


D#||------------------------------------------------------------------------------------------|
A#||------------------------------------------------------------------------------------------|
F#||--9--9--9--10-10-10-12-12-12-10-10-10-9--9--9--9---10-10-10-10----x-9-9-9-9----x-9-9-9-9--|
C#||--10-10-10-10-10-10-10-10-10-10-10-10-10-10-10-10--8--8--8--8-----x-7-7-7-7----x-7-7-7-7--|
G#||------------------------------------------------------------------------------------------|
C#||------------------------------------------------------------------------------------------|


Guitar 2:
D#||----------------------------------------------------|
A#||----------------------------------------------------|
F#||----------------------------------------------------|
C#||--0---0-0-0-0---0---0-0------8---8-8-8-8---8---8-8--|
G#||--0---0-0-0-0---0---0-0------8---8-8-8-8---8---8-8--|
C#||--0---0-0-0-0---0---0-0------8---8-8-8-8---8---8-8--|


D#||--------------------------------------------|
A#||--------------------------------------------|
F#||--------------------------------------------|
C#||--10---10-10---10-10----10-10---10-10-10-x--|
G#||--10---10-10---10-10----10-10---10-10-10-x--|
C#||--10---10-10---10-10----10-10---10-10-10-x--|


D#||-----------------------------------|
A#||-----------------------------------|
F#||-----------------------------------|
C#||--8-----8---x-7-----7-----7-7-7-7--|
G#||--8-----8---x-7-----7-----7-7-7-7--|
C#||--8-----8---x-7-----7-----7-7-7-7--|


D#||----------------------------------------------------|
A#||----------------------------------------------------|
F#||----------------------------------------------------|
C#||--0---0-0-0-0---0---0-0------8---8-8-8-8---8---8-8--|
G#||--0---0-0-0-0---0---0-0------8---8-8-8-8---8---8-8--|
C#||--0---0-0-0-0---0---0-0------8---8-8-8-8---8---8-8--|


D#||--------------------------------------------|
A#||--------------------------------------------|
F#||--------------------------------------------|
C#||--10---10-10---10-10----10-10---10-10-10-x--|
G#||--10---10-10---10-10----10-10---10-10-10-x--|
C#||--10---10-10---10-10----10-10---10-10-10-x--|


D#||-----------------------------------|
A#||-----------------------------------|
F#||-----------------------------------|
C#||--8-8-8-8---x-7-7-7-7---x-7-7-7-7--|
G#||--8-8-8-8---x-7-7-7-7---x-7-7-7-7--|
C#||--8-8-8-8---x-7-7-7-7---x-7-7-7-7--|



Outro
Guitar 1/2:
D#||--------------------------------------------------------------|
A#||--------------------------------------------------------------|
F#||--------------------------------------------------------------|
C#||---------------------------------------8----------------------|
G#||---------------------------------------8----------------------|
C#||--0-----12\-----0-7-10-8---7-5-7-8-----8-----3-5-5-3-5-0-3-5--|


D#||--------------------------------------------------------------|
A#||--------------------------------------------------------------|
F#||--------------------------------------------------------------|
C#||--------12\----------------------------8----x-3---2---3-/-10--|
G#||--------12\----------------------------8----x-3---3---3-/-10--|
C#||--0-----12\-----0-7-10-8---7-5-7-8-----8----x-3---2---3-/-10--|


D#||-------------|
A#||-------------|
F#||-------------|
C#||--12------0--|
G#||--12------0--|
C#||--12------0--|




Tablature Legend
----------------
 h   hammer-on
 p   pull-off
 b   bend
 pb  pre-bend
 r   release bend
 ~   hold / vibrato
 .   palm mute
 /   slide up
 \   slide down
 *   pinch harmonic
 '   natural harmonic
 x   mute note
 T   tap
Добавлено: 06.12.2015
Другие материалы по этой песне:
  • Аккорды и текст

Страница создана 31.10.2015
http://primanota.ru/silverstein/continual-condition-chords.htm
Привет, Гость.
Предлагаем пройти революционный курс по гитаре.
Подарок от PrimaNota.Ru, забирай!