PrimaNota.ru - самый крупный в мире бесплатный архив песенных текстов, аккордов, табулатур и нот


Silverstein - Milestone - таба, бас-таба, видео

Регистрация Запомнить меня
Войти через:  Facebook Google Twitter Vk Yandex Mail.ru

Silverstein - Milestone - таба, бас-таба, видео

Печатать
Просмотров: 89
Tabbed by: Joshua Garcia (joshuag523@aol.com)

Tabs for the song: Milestone by Silverstein
Please rate and let me know if you have any corrections. Thank you.


** For my tab of the whole album, go here:
http://tabs.ultimate-guitar.com/s/silverstein/i_am_alive_in_everything_i_touch_album_tab.htm **


Tuning: Drop C# (C# G# C# F# A# D#)


Intro
Guitar 1:
D#||---------------------------------------------------------------------|
A#||--------------------------------------------------------6------------|
F#||--------------------------------------------------------9b10---------|
C#||----------------------------------------------------8-x-------x-11~--|
G#||--0-0-0-0-0-0-0-0-0-0-0-0-0-0-0-0-0-0-0-0-0-0-0-0-0-8-x-------x-11~--|
C#||--0-0-0-0-0-0-0-0-0-0-0-0-0-0-0-0-0-0-0-0-0-0-0-0-0-8-x-------x-11~--|
      . . . . . . . . . . . . . . . . . . . . . . . . .

D#||------------------------------------------------------------------|
A#||------------------------------------------------------------------|
F#||--------------------------------------------------------9---------|
C#||----------------------------------------------------8-x-9---x-1---| x2
G#||--0-0-0-0-0-0-0-0-0-0-0-0-0-0-0-0-0-0-0-0-0-0-0-0-0-8-x-7---x-1~--|
C#||--0-0-0-0-0-0-0-0-0-0-0-0-0-0-0-0-0-0-0-0-0-0-0-0-0-8-x-----x-1~--|
      . . . . . . . . . . . . . . . . . . . . . . . . .

D#||-------|
A#||-------|
F#||-------|
C#||-------|
G#||--0-0--|
C#||--0-0--|
      . .

Guitar 2:
D#||---------------------------------------------------|
A#||--11-11-11-11-11-11-11-11-11-11-11-11-11-11-11-11--|
F#||---------------------------------------------------|
C#||---------------------------------------------------| x8
G#||---------------------------------------------------|
C#||---------------------------------------------------|



Verse
Guitar 1/2:
D#||--------------------------------|---------------------------------------|
A#||--------------------------------|---------------------------------------|
F#||-------9------------------------|-------9-------------------------------|
C#||--0-8--9--8---------------------|--0-8--9--8--11-11-11---11-11-11---11--|
G#||--0-8--7--8---------------------|--0-8--7--8--11-11-11---11-11-11---11--|
C#||--0-8-----8--0-0-0---0-0-0---0--|--0-8-----8--11-11-11---11-11-11---11--|


D#||--------------------------------|-------------------------------|
A#||--------------------------------|-------------------------------|
F#||-------9------------------------|-------9-----------------------|
C#||--0-8--9--8---------------------|--0-8--9--8--8-11--------------|
G#||--0-8--7--8---------------------|--0-8--7--8--8-11-----/pick-/--|
C#||--0-8-----8--0-0-0---0-0-0---0--|--0-8-----8--8-11----/slide/---|


D#||--------------------------------|---------------------------------------|
A#||--------------------------------|---------------------------------------|
F#||-------9------------------------|-------9-------------------------------|
C#||--0-8--9--8---------------------|--0-8--9--8--11-11-11---11-11-11---11--|
G#||--0-8--7--8---------------------|--0-8--7--8--11-11-11---11-11-11---11--|
C#||--0-8-----8--0-0-0---0-0-0---0--|--0-8-----8--11-11-11---11-11-11---11--|


D#||--------------------------------|----------------------------------------|
A#||--------------------------------|----------------------------------------|
F#||-------9------------------------|-------9--------------------------------|
C#||--0-8--9--8---------------------|--0-8--9--8--8-11-11-11-11-11-11-11-11--|
G#||--0-8--7--8---------------------|--0-8--7--8--8-11-11-11-11-11-11-11-11--|
C#||--0-8-----8--0-0-0---0-0-0---0--|--0-8-----8--8-11-11-11-11-11-11-11-11--|
                                                    .  .  .



Chorus
Guitar 1:
D#||---------------------------------------------------------------------------------|
A#||--6-6-6-6-6-6-10-10-5-5-5-5-5-5-5-5-10-10-10-10-8-8-8-8-11-11-11-11-10-10-10-10--|
F#||--7-7-7-7-7-7-10-10-5-5-5-5-5-5-5-5-10-10-10-10-9-9-9-9-12-12-12-12-10-10-10-10--|
C#||---------------------------------------------------------------------------------|
G#||---------------------------------------------------------------------------------|
C#||---------------------------------------------------------------------------------|


D#||---------------------------------------------------------------------------------|
A#||--10-10-10-10-10-10-8-8-11-11-11-11-10-10-10-10-6-6-6-6-6-6-6-6-5-5-5-5-5-5-5-5--|
F#||--10-10-10-10-10-10-9-9-12-12-12-12-10-10-10-10-5-5-5-5-5-5-5-5-6-6-6-6-6-6-6-6--|
C#||---------------------------------------------------------------------------------| x2
G#||---------------------------------------------------------------------------------|
C#||---------------------------------------------------------------------------------|


Guitar 2:
D#||-------------------------------------------------------------------|
A#||-------------------------------------------------------------------|
F#||--7-7-7-7-7-7-7-7-7-7-7-7-7-7-7-7-3-3-3-3-3-3-3-3-3-3-3-3----------|
C#||--7-7-7-7-7-7-7-7-7-7-7-7-7-7-7-7-3-3-3-3-3-3-3-3-3-3-3-3----------|
G#||--5-5-5-5-5-5-5-5-5-5-5-5-4-4-4-4-1-1-1-1-1-1-1-1-1-1-1-1-0-0---0--|
C#||--------------------------------------------------------------3----|


D#||-------------------------------------------------------------------|
A#||-------------------------------------------------------------------|
F#||-------------------------------------------------------------------|
C#||--5-5-5-5-5-5-5-5-5-5-5-5-5-5-5-5-3-3-3-3-3-3-3-3-2-2-2-2-2-2-2-2--|
G#||--5-5-5-5-5-5-5-5-5-5-5-5-5-5-5-5-3-3-3-3-3-3-3-3-4-4-4-4-4-4-4-4--|
C#||--5-5-5-5-5-5-5-5-5-5-5-5-5-5-5-5-3-3-3-3-3-3-3-3-2-2-2-2-2-2-2-2--|


D#||-------------------------------------------------------------------|
A#||-------------------------------------------------------------------|
F#||--7-7-7-7-7-7-7-7-7-7-7-7-7-7-7-7-3-3-3-3-3-3-3-3-3-3-3-3----------|
C#||--7-7-7-7-7-7-7-7-7-7-7-7-7-7-7-7-3-3-3-3-3-3-3-3-3-3-3-3----------|
G#||--5-5-5-5-5-5-5-5-5-5-5-5-4-4-4-4-1-1-1-1-1-1-1-1-1-1-1-1-0-0---0--|
C#||--------------------------------------------------------------3----|


D#||-------------------------------------------------------------------|
A#||-------------------------------------------------------------------|
F#||-------------------------------------------------------------------|
C#||--5-5-5-5-5-5-5-5-5-5-5-5-5-5-5-5-3-3-3-3-3-3-3-3-2-2-2-2-2-2-2-2--|
G#||--5-5-5-5-5-5-5-5-5-5-5-5-5-5-5-5-3-3-3-3-3-3-3-3-4-4-4-4-4-4-4-4--|
C#||--5-5-5-5-5-5-5-5-5-5-5-5-5-5-5-5-3-3-3-3-3-3-3-3-2-2-2-2-2-2-2-2--|
                                      .               .



Pre-Verse
Guitar 1:
D#||---------------------------------------------------------------------|
A#||--------------------------------------------------------6------------|
F#||--------------------------------------------------------9b10---------|
C#||----------------------------------------------------8-x-------x-11~--|
G#||--0-0-0-0-0-0-0-0-0-0-0-0-0-0-0-0-0-0-0-0-0-0-0-0-0-8-x-------x-11~--|
C#||--0-0-0-0-0-0-0-0-0-0-0-0-0-0-0-0-0-0-0-0-0-0-0-0-0-8-x-------x-11~--|
      . . . . . . . . . . . . . . . . . . . . . . . . .

D#||------------------------------------------------------------------|
A#||------------------------------------------------------------------|
F#||--------------------------------------------------------9---------|
C#||----------------------------------------------------8-x-9---x-1---| x2
G#||--0-0-0-0-0-0-0-0-0-0-0-0-0-0-0-0-0-0-0-0-0-0-0-0-0-8-x-7---x-1~--|
C#||--0-0-0-0-0-0-0-0-0-0-0-0-0-0-0-0-0-0-0-0-0-0-0-0-0-8-x-----x-1~--|
      . . . . . . . . . . . . . . . . . . . . . . . . .


Guitar 2:
D#||---------------------------------------------------|
A#||--11-11-11-11-11-11-11-11-11-11-11-11-11-11-11-11--|
F#||---------------------------------------------------|
C#||---------------------------------------------------| x4
G#||---------------------------------------------------|
C#||---------------------------------------------------|


Guitar 1:
D#||---------------------|------------------|
A#||---------------------|------------------|
F#||---------------------|--------9---------|
C#||---------------------|--0-8-x-9---x-1~--|
G#||--0-0----------------|--0-8-x-7---x-1~--|
C#||--0-0----------------|--0-8-x-----x-1~--|
      . .

Guitar 2:
D#||---------------------|------------------|
A#||--------6------------|------------------|
F#||--------9b10---------|------------------|
C#||----8-x-------x-11~--|------------------|
G#||--0-8-x-------x-11~--|---/pick-/--------|
C#||--0-8-x-------x-11~--|--/slide/---------|
      .



Verse
Guitar 1/2:
D#||--------------------------------|---------------------------------------|
A#||--------------------------------|---------------------------------------|
F#||-------9------------------------|-------9-------------------------------|
C#||--0-8--9--8---------------------|--0-8--9--8--11-11-11---11-11-11---11--|
G#||--0-8--7--8---------------------|--0-8--7--8--11-11-11---11-11-11---11--|
C#||--0-8-----8--0-0-0---0-0-0---0--|--0-8-----8--11-11-11---11-11-11---11--|


D#||--------------------------------|-------------------|
A#||--------------------------------|-------------------|
F#||-------9------------------------|-------9-----------|
C#||--0-8--9--8---------------------|--0-8--9--8--8-11--|
G#||--0-8--7--8---------------------|--0-8--7--8--8-11--|
C#||--0-8-----8--0-0-0---0-0-0---0--|--0-8-----8--8-11--|


Guitar 1:
D#||------------|------------|
A#||------------|------------|
F#||------------|------------|
C#||------------|------------|
G#||---/pick-/--|------------|
C#||--/slide/---|------------|

Guitar 2:
D#||------------|------------|
A#||------------|------------|
F#||------------|------------|
C#||------------|------------|
G#||------------|---/pick-/--|
C#||------------|--/slide/---|


D#||--------------------------------|-----------------------------------------|
A#||--------------------------------|-----------------------------------------|
F#||-------9------------------------|-------9---------------------------------|
C#||--0-8--9--8----0-0-0-0-0-0-0-0--|--0-8--9--8--11-11-11-11-11-11-11-11-11--|
G#||--0-8--7--8----0-0-0-0-0-0-0-0--|--0-8--7--8--11-11-11-11-11-11-11-11-11--|
C#||--0-8-----8--0-0-0-0-0-0-0-0-0--|--0-8-----8--11-11-11-11-11-11-11-11-11--|
                   . . . . . . . .

D#||--------------------------------|--------------------------------|
A#||--------------------------------|--------------------------------|
F#||-------9------------------------|-------9------------------------|
C#||--0-8--9--8----0-0---0-0-0---0--|--0-8--9--8--8-x-x-x-x-x-x-x-x--|
G#||--0-8--7--8----0-0---0-0-0---0--|--0-8--7--8--8-x-x-x-x-x-x-x-x--|
C#||--0-8-----8--0-0-0---0-0-0---0--|--0-8-----8--8-x-x-x-x-x-x-x-x--|
                   . .   . . .   .


Chorus
Guitar 1:
D#||---------------------------------------------------------------------------------|
A#||--6-6-6-6-6-6-10-10-5-5-5-5-5-5-5-5-10-10-10-10-8-8-8-8-11-11-11-11-10-10-10-10--|
F#||--7-7-7-7-7-7-10-10-5-5-5-5-5-5-5-5-10-10-10-10-9-9-9-9-12-12-12-12-10-10-10-10--|
C#||---------------------------------------------------------------------------------|
G#||---------------------------------------------------------------------------------|
C#||---------------------------------------------------------------------------------|


D#||---------------------------------------------------------------------------------|
A#||--10-10-10-10-10-10-8-8-11-11-11-11-10-10-10-10-6-6-6-6-6-6-6-6-5-5-5-5-5-5-5-5--|
F#||--10-10-10-10-10-10-9-9-12-12-12-12-10-10-10-10-5-5-5-5-5-5-5-5-6-6-6-6-6-6-6-6--|
C#||---------------------------------------------------------------------------------|
G#||---------------------------------------------------------------------------------|
C#||---------------------------------------------------------------------------------|


D#||---------------------------------------------------------------------------------|
A#||--6-6-6-6-6-6-10-10-5-5-5-5-5-5-5-5-10-10-10-10-8-8-8-8-11-11-11-11-10-10-10-10--|
F#||--7-7-7-7-7-7-10-10-5-5-5-5-5-5-5-5-10-10-10-10-9-9-9-9-12-12-12-12-10-10-10-10--|
C#||---------------------------------------------------------------------------------|
G#||---------------------------------------------------------------------------------|
C#||---------------------------------------------------------------------------------|


D#||----------------------------------------------------------------------------------------------|
A#||--10-10-10-10-10-10-8-8-11-11-11-11-10-10-10-10-10-10-10-10-10-10-10-10-11-11-11-11-11--------|
F#||--10-10-10-10-10-10-9-9-12-12-12-12-10-10-10-10-10-10-10-10-10-10-10-10-12-12-12-12-12--------|
C#||---------------------------------------------------------------------------------------x-*10--|
G#||---------------------------------------------------------------------------------------x------|
C#||---------------------------------------------------------------------------------------x------|


Guitar 2:
D#||-------------------------------------------------------------------|
A#||-------------------------------------------------------------------|
F#||--7-7-7-7-7-7-7-7-7-7-7-7-7-7-7-7-3-3-3-3-3-3-3-3-3-3-3-3----------|
C#||--7-7-7-7-7-7-7-7-7-7-7-7-7-7-7-7-3-3-3-3-3-3-3-3-3-3-3-3----------|
G#||--5-5-5-5-5-5-5-5-5-5-5-5-4-4-4-4-1-1-1-1-1-1-1-1-1-1-1-1-0-0---0--|
C#||--------------------------------------------------------------3----|


D#||-------------------------------------------------------------------|
A#||-------------------------------------------------------------------|
F#||-------------------------------------------------------------------|
C#||--5-5-5-5-5-5-5-5-5-5-5-5-5-5-5-5-3-3-3-3-3-3-3-3-2-2-2-2-2-2-2-2--|
G#||--5-5-5-5-5-5-5-5-5-5-5-5-5-5-5-5-3-3-3-3-3-3-3-3-4-4-4-4-4-4-4-4--|
C#||--5-5-5-5-5-5-5-5-5-5-5-5-5-5-5-5-3-3-3-3-3-3-3-3-2-2-2-2-2-2-2-2--|


D#||-------------------------------------------------------------------|
A#||-------------------------------------------------------------------|
F#||--7-7-7-7-7-7-7-7-7-7-7-7-7-7-7-7-3-3-3-3-3-3-3-3-3-3-3-3----------|
C#||--7-7-7-7-7-7-7-7-7-7-7-7-7-7-7-7-3-3-3-3-3-3-3-3-3-3-3-3----------|
G#||--5-5-5-5-5-5-5-5-5-5-5-5-4-4-4-4-1-1-1-1-1-1-1-1-1-1-1-1-0-0---0--|
C#||--------------------------------------------------------------3----|


D#||------------------------------------------------------------------|
A#||------------------------------------------------------------------|
F#||------------------------------------------------------------------|
C#||--5-5-5-5-5-5-5-5-5-5-5-5-5-5-5-5-3-3-3-3-3-3-3-3-1-1-1-1-1-x-'5--|
G#||--5-5-5-5-5-5-5-5-5-5-5-5-5-5-5-5-3-3-3-3-3-3-3-3-1-1-1-1-1-x-----|
C#||--5-5-5-5-5-5-5-5-5-5-5-5-5-5-5-5-3-3-3-3-3-3-3-3-1-1-1-1-1-x-----|
                                      .               .


Breakdown
Guitar 1/2:
D#||-----------------------------------------------------------|
A#||-----------------------------------------------7-----------|
F#||-------3-------------------------3-------------10b11-------|
C#||--0-2--3--2-----------------0-2--3--2--/11--8---------x-1--|
G#||--0-2--1--2-----------------0-2--1--2--/11--8---------x-1--|
C#||--0-2-----2-----------------0-2-----2--/11--8---------x-1--|

                            (1)
D#||-----------------------------------------------------------|
A#||-----------------------------------------------7-----------|
F#||-------3-------------------------3-------------10b11-------|
C#||--0-2--3--2-------------x-x-0-2--3--2--/11--8---------x-1--|
G#||--0-2--1--2-------------x-x-0-2--1--2--/11--8---------x-1--|
C#||--0-2-----2-------------x-x-0-2-----2--/11--8---------x-1--|


D#||-----------------------------------------------------------|
A#||-----------------------------------------------7-----------|
F#||-------9-------------------------9-------------10b11-------|
C#||--0-8--9--8-----------------0-8--9--8--/11--8---------x-1--|
G#||--0-8--7--8-----------------0-8--7--8--/11--8---------x-1--|
C#||--0-8-----8-----------------0-8-----8--/11--8---------x-1--|


D#||-----------------------------------------------------------|
A#||-----------------------------------------------7-----------|
F#||-------9-------------------------9-------------10b11-------|
C#||--0-8--9--8-x-x---x-x---x-x-0-8--9--8--/11--8---------x-1--|
G#||--0-8--7--8-x-x---x-x---x-x-0-8--7--8--/11--8---------x-1--|
C#||--0-8-----8-x-x---x-x---x-x-0-8-----8--/11--8---------x-1--|



Bridge
Guitar 1:
D#||-------------------------------------------------------------------|
A#||-------------------------------------------------------------------|
F#||-------------------------------------------------------------------|
C#||--0-0-0-0-0-0-0-0-0-0-0-0-0-0-0-0-0-0-0-0-0-0-0-0-0-0-0-0-0-0-0-0--| x4
G#||--0-0-0-0-0-0-0-0-0-0-0-0-0-0-0-0-0-0-0-0-0-0-0-0-0-0-0-0-0-0-0-0--|
C#||--0-0-0-0-0-0-0-0-0-0-0-0-0-0-0-0-0-0-0-0-0-0-0-0-0-0-0-0-0-0-0-0--|
      . . . . . . . . . . . . . . . . . . . . . . . . . . . . . . . .


Guitar 2 (Listen for when to come in):
D#||-------------------------------------------------------------------|
A#||-------------------------------------------------------------------|
F#||-------------------------------------------------------------------|
C#||--0-0-0-0-0-0-0-0-0-0-0-0-0-0-0-0-0-0-0-0-0-0-0-0-0-0-0-0-0-0-0-0--|
G#||--0-0-0-0-0-0-0-0-0-0-0-0-0-0-0-0-0-0-0-0-0-0-0-0-0-0-0-0-0-0-0-0--|
C#||--0-0-0-0-0-0-0-0-0-0-0-0-0-0-0-0-0-0-0-0-0-0-0-0-0-0-0-0-0-0-0-0--|
      . . . . . . . . . . . . . . . . . . . . . . . . . . . . . . . .


D#||----------------------|
A#||----------------------|
F#||----------------------|
C#||----------------------|
G#||----------------------|
C#||--//harmonic-slide\\--|


Guitar 2 (Dub):
D#||---------------------------------------------------|
A#||--11-11-11-11-11-11-11-11-11-11-11-11-11-11-11-11--|
F#||---------------------------------------------------|
C#||---------------------------------------------------| x4
G#||---------------------------------------------------|
C#||---------------------------------------------------|


Guitar 1:
D#||--------------------------------|
A#||--6-6-6-6-6-6-10-10-5-5-5-5-5~--|
F#||--7-7-7-7-7-7-10-10-5-5-5-5-6~--|
C#||--------------------------------|
G#||--------------------------------|
C#||--------------------------------|


Guitar 2:
D#||------------------------------|
A#||------------------------------|
F#||--7-7-7-7-7-7-7-7-7-7-7-7-7~--|
C#||--7-7-7-7-7-7-7-7-7-7-7-7-7~--|
G#||--5-5-5-5-5-5-5-5-5-5-5-5-4~--|
C#||------------------------------|



Chorus
Guitar 1:
D#||-----------------------------------------------|
A#||--10-10-10-10-8-8-8-8-11-11-11-11-10-10-10-10--|
F#||--10-10-10-10-9-9-9-9-12-12-12-12-10-10-10-10--|
C#||-----------------------------------------------|
G#||-----------------------------------------------|
C#||-----------------------------------------------|


D#||---------------------------------------------------------------------------------|
A#||--10-10-10-10-10-10-8-8-11-11-11-11-10-10-10-10-6-6-6-6-6-6-6-6-5-5-5-5-5-5-5-5--|
F#||--10-10-10-10-10-10-9-9-12-12-12-12-10-10-10-10-5-5-5-5-5-5-5-5-6-6-6-6-6-6-6-6--|
C#||---------------------------------------------------------------------------------|
G#||---------------------------------------------------------------------------------|
C#||---------------------------------------------------------------------------------|


D#||---------------------------------------------------------------------------------|
A#||--6-6-6-6-6-6-10-10-5-5-5-5-5-5-5-5-10-10-10-10-8-8-8-8-11-11-11-11-10-10-10-10--|
F#||--7-7-7-7-7-7-10-10-5-5-5-5-5-5-5-5-10-10-10-10-9-9-9-9-12-12-12-12-10-10-10-10--|
C#||---------------------------------------------------------------------------------|
G#||---------------------------------------------------------------------------------|
C#||---------------------------------------------------------------------------------|


D#||----------------------------------------------------------------------------------------------|
A#||--10-10-10-10-10-10-8-8-11-11-11-11-10-10-10-10-10-10-10-10-10-10-10-10-11-11-11-11-11--------|
F#||--10-10-10-10-10-10-9-9-12-12-12-12-10-10-10-10-10-10-10-10-10-10-10-10-12-12-12-12-12--------|
C#||---------------------------------------------------------------------------------------x-*10--|
G#||---------------------------------------------------------------------------------------x------|
C#||---------------------------------------------------------------------------------------x------|


Guitar 2:
D#||-----------------------------------|
A#||-----------------------------------|
F#||--3-3-3-3-3-3-3-3-3-3-3-3----------|
C#||--3-3-3-3-3-3-3-3-3-3-3-3----------|
G#||--1-1-1-1-1-1-1-1-1-1-1-1-0-0---0--|
C#||------------------------------3----|


D#||-------------------------------------------------------------------|
A#||-------------------------------------------------------------------|
F#||-------------------------------------------------------------------|
C#||--5-5-5-5-5-5-5-5-5-5-5-5-5-5-5-5-3-3-3-3-3-3-3-3-2-2-2-2-2-2-2-2--|
G#||--5-5-5-5-5-5-5-5-5-5-5-5-5-5-5-5-3-3-3-3-3-3-3-3-4-4-4-4-4-4-4-4--|
C#||--5-5-5-5-5-5-5-5-5-5-5-5-5-5-5-5-3-3-3-3-3-3-3-3-2-2-2-2-2-2-2-2--|


D#||-------------------------------------------------------------------|
A#||-------------------------------------------------------------------|
F#||--7-7-7-7-7-7-7-7-7-7-7-7-7-7-7-7-3-3-3-3-3-3-3-3-3-3-3-3----------|
C#||--7-7-7-7-7-7-7-7-7-7-7-7-7-7-7-7-3-3-3-3-3-3-3-3-3-3-3-3----------|
G#||--5-5-5-5-5-5-5-5-5-5-5-5-4-4-4-4-1-1-1-1-1-1-1-1-1-1-1-1-0-0---0--|
C#||--------------------------------------------------------------3----|


D#||------------------------------------------------------------------|
A#||------------------------------------------------------------------|
F#||------------------------------------------------------------------|
C#||--5-5-5-5-5-5-5-5-5-5-5-5-5-5-5-5-3-3-3-3-3-3-3-3-1-1-1-1-1-x-'5--|
G#||--5-5-5-5-5-5-5-5-5-5-5-5-5-5-5-5-3-3-3-3-3-3-3-3-1-1-1-1-1-x-----|
C#||--5-5-5-5-5-5-5-5-5-5-5-5-5-5-5-5-3-3-3-3-3-3-3-3-1-1-1-1-1-x-----|
                                      .               .


Outro
Guitar 1/2:
D#||-----------------------------------------------------------|
A#||-----------------------------------------------7-----------|
F#||-------3-------------------------3-------------10b11-------|
C#||--0-2--3--2-----------------0-2--3--2--/11--8---------x-1--|
G#||--0-2--1--2-----------------0-2--1--2--/11--8---------x-1--|
C#||--0-2-----2-----------------0-2-----2--/11--8---------x-1--|


D#||-----------------------------------------------------------|
A#||-----------------------------------------------7-----------|
F#||-------3-------------------------3-------------10b11-------|
C#||--0-2--3--2-----------------0-2--3--2--/11--8---------x-1--|
G#||--0-2--1--2-----------------0-2--1--2--/11--8---------x-1--|
C#||--0-2-----2-----------------0-2-----2--/11--8---------x-1--|


D#||--------|
A#||--------|
F#||--------|
C#||--0-0~--|
G#||--0-0~--|
C#||--0-0~--|
      . .




Tablature Legend
----------------
 h   hammer-on
 p   pull-off
 b   bend
 pb  pre-bend
 r   release bend
 ~   hold / vibrato
 .   palm mute
 /   slide up
 \   slide down
 *   pinch harmonic
 '   natural harmonic
 x   mute note
 T   tap
Добавлено: 21.12.2015
Другие материалы по этой песне:
  • Аккорды и текст

Страница создана 31.10.2015
http://primanota.ru/silverstein/milestone-chords.htm
Привет, Гость.
Предлагаем пройти революционный курс по гитаре.
Подарок от PrimaNota.Ru, забирай!