PrimaNota.ru - самый крупный в мире бесплатный архив песенных текстов, аккордов, табулатур и нот


Silverstein - Late On 6th - таба, бас-таба, видео

Регистрация Запомнить меня
Войти через:  Facebook Google Twitter Vk Yandex Mail.ru

Silverstein - Late On 6th - таба, бас-таба, видео

Печатать
Просмотров: 90
Tabbed by: Joshua Garcia (joshuag523@aol.com)

Tabs for the song: Late on 6th by Silverstein
Please rate and let me know if you have any corrections. Thank you.


** For my tab of the whole album, go here:
http://tabs.ultimate-guitar.com/s/silverstein/i_am_alive_in_everything_i_touch_album_tab.htm **


Tuning: Guitar 1: Drop C# (C# G# C# F# A# D#)
        Guitar 2: Drop C# (C# G# C# F# A# D#)
        Guitar 3: Drop A# (A# F A# D# G C)


Intro
Guitar 1:
D#||-------------------------------------------------------------------------------|
A#||--------------------------------------0~---------------------------------------|
F#||--5~-------------0~----2~----------------------------------0~----4~--------5~--|
C#||--7~-------------------3~-------------------3~-------------------5~------------|
G#||--7~-------------------3~-------------------0~-------------------5~------------|
C#||--7~-------------------3~-------------------0~-------------------5~------------|



Verse
Guitar 1:
D#||---------------------------------------------------------------------------------0~--|
A#||-----------0~----------------0~------------------------------------------------------|
F#||--5~----7~-------0~----2~-------0~-------------------------------4~--------5~--------|
C#||--7~-------------------3~-------------------3~--------5~---------5~------------------|
G#||--7~-------------------3~-------------------0~--------0~---------5~------------------|
C#||--7~-------------------3~-------------------0~--------0~---------5~------------------|


D#||---------------------------------------------------------------------------------0~--|
A#||-----------0~----------------0~------------------------------------------------------|
F#||--5~----7~-------0~----2~-------0~-------------------------------4~--------5~--------|
C#||--7~-------------------3~-------------------3~--------5~---------5~------------------|
G#||--7~-------------------3~-------------------0~--------0~---------5~------------------|
C#||--7~-------------------3~-------------------0~--------0~---------5~------------------|


D#||---------------------------------------------------------------------------------0~--|
A#||-----------0~----------------0~------------------------------------------------------|
F#||--5~----7~-------0~----2~-------0~-------------------------------4~--------5~--------|
C#||--7~-------------------3~-------------------3~--------5~---7~----5~------------------|
G#||--7~-------------------3~-------------------0~--------0~---------5~------------------|
C#||--7~-------------------3~-------------------0~--------0~---------5~------------------|



Chorus
Guitar 1:
D#||--------------------------------------|
A#||--------------------------------------|
F#||--0~------------11--9~-------------4--|
C#||--2~------------12--10~------------5--| x3
G#||--2~------------12--10~------------5--|
C#||--2~------------12--10~------------5--|


D#||-------------------------|
A#||-------------------------|
F#||--0~------------11--9~---|
C#||--2~------------12--10~--|
G#||--2~------------12--10~--|
C#||--2~------------12--10~--|


Guitar 2:
D#||----------10~-----------------10~-------------10~--|
A#||-------7~------------------7~----------------------|
F#||----7~------------------7~---------------7~--------|
C#||--9~-----------------------------------------------| x4
G#||---------------------10~------------7~-------------|
C#||---------------------------------------------------|



Verse
Guitar 1:
D#||---------------------------------------------------------------------------------0~--|
A#||-----------0~----------------0~------------------------------------------------------|
F#||--5~----7~-------0~----2~-------0~-------------------------------4~--------5~--------|
C#||--7~-------------------3~-------------------3~--------5~---7~----5~------------------| x2
G#||--7~-------------------3~-------------------0~--------0~---------5~------------------|
C#||--7~-------------------3~-------------------0~--------0~---------5~------------------|



Chorus
Guitar 1:
D#||--------------------------------------|
A#||--------------------------------------|
F#||--0~------------11--9~-------------4--|
C#||--2~------------12--10~------------5--| x3
G#||--2~------------12--10~------------5--|
C#||--2~------------12--10~------------5--|


D#||-------------------------|
A#||-------------------------|
F#||--0~------------11--9~---|
C#||--2~------------12--10~--|
G#||--2~------------12--10~--|
C#||--2~------------12--10~--|


Guitar 2:
D#||----------10~-----------------10~-------------10~--|
A#||-------7~------------------7~----------------------|
F#||----7~------------------7~---------------7~--------|
C#||--9~-----------------------------------------------| x4
G#||---------------------10~------------7~-------------|
C#||---------------------------------------------------|



Interlude
Guitar 2:
D#||----------10~-----------------10~-------------10~--|
A#||-------7~------------------7~----------------------|
F#||----7~------------------7~---------------7~--------|
C#||--9~-----------------------------------------------| x4
G#||---------------------10~------------7~-------------|
C#||---------------------------------------------------|



Outro
Guitar 2:
D#||----------10~-----------------10~-------------10~-9~--|
A#||-------7~------------------7~-------------------------|
F#||----7~------------------7~---------------7~-----------|
C#||--9~--------------------------------------------------| x6
G#||---------------------10~------------7~----------------|
C#||------------------------------------------------------|


Guitar 3:
C ||------------------------------------------------------|
G#||------------------------------------------------------|
D#||------------------------------------------------------|
A#||--8~------------8--8~------------5~------------5--5~--|
F ||--8~------------8--8~------------5~------------5--5~--|
A#||--8~------------8--8~------------5~------------5--5~--|


C ||------------------------------------------------------|
G#||------------------------------------------------------|
D#||------------------------------------------------------|
A#||--0~------------0--0~------------0~------------0--0~--| x3
F ||--0~------------0--0~------------0~------------0--0~--|
A#||--0~------------0--0~------------0~------------0--0~--|




Tablature Legend
----------------
 h   hammer-on
 p   pull-off
 b   bend
 pb  pre-bend
 r   release bend
 ~   hold / vibrato
 .   palm mute
 /   slide up
 \   slide down
 *   pinch harmonic
 '   natural harmonic
 x   mute note
 T   tap
Добавлено: 06.12.2015
Другие материалы по этой песне:
  • Аккорды и текст

Страница создана 31.10.2015
http://primanota.ru/silverstein/late-on-6th-chords.htm
Привет, Гость.
Предлагаем пройти революционный курс по гитаре.
Подарок от PrimaNota.Ru, забирай!