PrimaNota.ru - самый крупный в мире бесплатный архив песенных текстов, аккордов, табулатур и нот


Silverstein - Heaven Hell And Purgatory - таба, бас-таба, видео

Регистрация Запомнить меня
Войти через:  Facebook Google Twitter Vk Yandex Mail.ru

Silverstein - Heaven Hell And Purgatory - таба, бас-таба, видео

Печатать
Просмотров: 186
Уроки эстрадного вокала в Санкт-Петербурге
Tabbed by: Joshua Garcia (joshuag523@aol.com)

Tabs for the song: Heaven, Hell and Purgatory by Silverstein
Please rate and let me know if you have any corrections. Thank you.


** For my tab of the whole album, go here:
http://tabs.ultimate-guitar.com/s/silverstein/i_am_alive_in_everything_i_touch_album_tab.htm **


Tuning: Drop C# (C# G# C# F# A# D#)


Intro
Guitar 1/2:
D#||---------------------------------------------------|
A#||---------------------------------------------------|
F#||---------------------------------------------------|
C#||--0-0-0-0-0-0-0-0-0-0-0-0-0-0-0-0-0-0-0-0-0-0-0-0--|
G#||--0-0-0-0-0-0-0-0-0-0-0-0-0-0-0-0-0-0-0-0-0-0-0-0--|
C#||--0-0-0-0-0-0-0-0-0-0-0-0-0-0-0-0-0-0-0-0-0-0-0-0--|
      . . . . . . . . . . . . . . . . . . . . . . . .

D#||--------------|
A#||--------------|
F#||--------------|
C#||--(feedback)--|
G#||--------------|
C#||--------------|



Verse
Guitar 1/2:
D#||----------------------------|
A#||----------------------------|
F#||----------------------------|
C#||--0-3-5-7-8-10-0-0-0-0-0-0--| x7
G#||--0-3-5-7-8-10-0-0-0-0-0-0--|
C#||--0-3-5-7-8-10-0-0-0-0-0-0--|
                   . . . . . .


D#||----------------|
A#||----------------|
F#||----------------|
C#||--0-3-5-7-8-10--|
G#||--0-3-5-7-8-10--|
C#||--0-3-5-7-8-10--|


Guitar 1:
D#||-----------------------------|
A#||-----------10-------------6--|
F#||-----------7--------------3--|
C#||--8--8--xx-8-----5--5--xx-5--|
G#||--8--8--xx-------5--5--xx----|
C#||--8--8--xx-------5--5--xx----|



Chorus
Guitar 1/2:
D#||---------------------------------------------------------|
A#||-----------6-------------6-------------10-------------6--|
F#||-----------7-------------7-------------7--------------3--|
C#||--0--0--xx-x----0--0--xx-x----8--8--xx-8-----5--5--xx-5--|
G#||--0--0--xx-8----0--0--xx-8----8--8--xx-------5--5--xx----|
C#||--0--0--xx------0--0--xx------8--8--xx-------5--5--xx----|


D#||-------------------------------|
A#||-----------6-------------------|
F#||-----------7-------------------|
C#||--0--0--xx-x----0--0--xx--3-7--|
G#||--0--0--xx-8----0--0--xx--3-7--|
C#||--0--0--xx------0--0--xx--3-7--|


Guitar 1:
D#||--------------------------------|--------------------------------|
A#||--/10-11-10---------------------|--------------------------------|
F#||------------12-10\7/10---12--\--|--10--10-----9----10--10-----9--|
C#||--------------------------------|--x---x---xx-x----x---x---xx-x--|
G#||--------------------------------|--8---8---xx-7----8---8---xx-7--|
C#||--------------------------------|----------xx--------------xx----|


D#||--------------------------------|--------------------------------|
A#||--/10-11-10---------------------|--------------------------------|
F#||------------12-10\7/10---12--\--|--14--14--14--14--14--14--14-\--|
C#||--------------------------------|--x---x---x---x---x---x---x--\--|
G#||--------------------------------|--12--12--12--12--12--12--12-\--|
C#||--------------------------------|--------------------------------|


Guitar 2:
D#||-----------------------------|
A#||-----------10-------------6--|
F#||-----------7--------------3--|
C#||--8--8--xx-8-----5--5--xx-5--|
G#||--8--8--xx-------5--5--xx----|
C#||--8--8--xx-------5--5--xx----|


D#||---------------------------------------------------------|
A#||-----------6-------------6-------------10-------------6--|
F#||-----------7-------------7-------------7--------------3--|
C#||--0--0--xx-x----0--0--xx-x----8--8--xx-8-----5--5--xx-5--|
G#||--0--0--xx-8----0--0--xx-8----8--8--xx-------5--5--xx----|
C#||--0--0--xx------0--0--xx------8--8--xx-------5--5--xx----|


D#||-----------------------|
A#||-----------------------|
F#||-----------------------|
C#||--0--0--0--0--0--0--0--|
G#||--0--0--0--0--0--0--0--|
C#||--0--0--0--0--0--0--0--|



Verse
Guitar 1/2:
D#||----------------------------|
A#||----------------------------|
F#||----------------------------|
C#||--0-3-5-7-8-10-0-0-0-0-0-0--| x4
G#||--0-3-5-7-8-10-0-0-0-0-0-0--|
C#||--0-3-5-7-8-10-0-0-0-0-0-0--|
                   . . . . . .

Guitar 1/2:
D#||----------------|
A#||----------------|
F#||----------------|
C#||--0-3-5-7-8-10--|
G#||--0-3-5-7-8-10--|
C#||--0-3-5-7-8-10--|


Guitar 1:
D#||--------------|
A#||--------------|
F#||--------------|
C#||--(feedback)--|
G#||--------------|
C#||--------------|


Guitar 2:
D#||---------------|
A#||---------------|
F#||---------------|
C#||--x-x-x-x-x-x--|
G#||--x-x-x-x-x-x--|
C#||--x-x-x-x-x-x--|


Guitar 1/2:
D#||----------------------------|
A#||----------------------------|
F#||----------------------------|
C#||--0-3-5-7-8-10-0-0-0-0-0-0--|
G#||--0-3-5-7-8-10-0-0-0-0-0-0--|
C#||--0-3-5-7-8-10-0-0-0-0-0-0--|
                   . . . . . .

D#||----------------------------|
A#||----------------------------|
F#||----------------------------|
C#||--0-3-5-7-8-10--(feedback)--|
G#||--0-3-5-7-8-10--------------|
C#||--0-3-5-7-8-10--------------|


D#||----------------|
A#||----------------|
F#||----------------|
C#||--0-3-5-7-8-10--|
G#||--0-3-5-7-8-10--|
C#||--0-3-5-7-8-10--|


Guitar 1:
D#||-----------------------------|
A#||-----------10-------------6--|
F#||-----------7--------------3--|
C#||--8--8--xx-8-----5--5--xx-5--|
G#||--8--8--xx-------5--5--xx----|
C#||--8--8--xx-------5--5--xx----|



Chorus
Guitar 1/2:
D#||---------------------------------------------------------|
A#||-----------6-------------6-------------10-------------6--|
F#||-----------7-------------7-------------7--------------3--|
C#||--0--0--xx-x----0--0--xx-x----8--8--xx-8-----5--5--xx-5--|
G#||--0--0--xx-8----0--0--xx-8----8--8--xx-------5--5--xx----|
C#||--0--0--xx------0--0--xx------8--8--xx-------5--5--xx----|


D#||-------------------------------|
A#||-----------6-------------------|
F#||-----------7-------------------|
C#||--0--0--xx-x----0--0--xx--3-7--|
G#||--0--0--xx-8----0--0--xx--3-7--|
C#||--0--0--xx------0--0--xx--3-7--|


Guitar 1:
D#||--------------------------------|--------------------------------|
A#||--/10-11-10---------------------|--------------------------------|
F#||------------12-10\7/10---12--\--|--10--10-----9----10--10-----9--|
C#||--------------------------------|--x---x---xx-x----x---x---xx-x--|
G#||--------------------------------|--8---8---xx-7----8---8---xx-7--|
C#||--------------------------------|----------xx--------------xx----|


D#||--------------------------------|-------------------------------------|
A#||--/10-11-10---------------------|-------------------------------------|
F#||------------12-10\7/10---12--\--|--14--14-----10---14-14-14-14-14-14--|
C#||--------------------------------|--x---x---xx-x----x--x--x--x--x--x---|
G#||--------------------------------|--12--12--xx-8----12-12-12-12-12-12--|
C#||--------------------------------|----------xx-------------------------|


Guitar 2:
D#||-----------------------------|
A#||-----------10-------------6--|
F#||-----------7--------------3--|
C#||--8--8--xx-8-----5--5--xx-5--|
G#||--8--8--xx-------5--5--xx----|
C#||--8--8--xx-------5--5--xx----|


D#||---------------------------------------------------------|
A#||-----------6-------------6-------------10-------------6--|
F#||-----------7-------------7-------------7--------------3--|
C#||--0--0--xx-x----0--0--xx-x----8--8--xx-8-----5--5--xx-5--|
G#||--0--0--xx-8----0--0--xx-8----8--8--xx-------5--5--xx----|
C#||--0--0--xx------0--0--xx------8--8--xx-------5--5--xx----|


D#||---------------------------|
A#||-----------6---------------|
F#||-----------7---------------|
C#||--0--0--xx-x--0-0-0-0-0-0--|
G#||--0--0--xx-8--0-0-0-0-0-0--|
C#||--0--0--xx----0-0-0-0-0-0--|



Interlude
Guitar 1:
D#||----------------------------------------------------------------------|
A#||----10-----10-----10---6-----6-----6---3-----3-----3---3-----3-----3--|
F#||-------7------7----------3-----3---------2-----2---------2-----2------|
C#||--8------8------8----5-----5-----5---0-----0-----0---0-----0-----0----| x3
G#||----------------------------------------------------------------------|
C#||----------------------------------------------------------------------|


D#||----------------------------------------------------|
A#||----10-----10-----10---6-----6-----6---3-----3------|
F#||-------7------7----------3-----3---------2-----2----|
C#||--8------8------8----5-----5-----5---0-----0-----0--|
G#||----------------------------------------------------|
C#||----------------------------------------------------|


Guitar 2:
D#||------------------------------------------------------------|
A#||------------------------------------------------------------|
F#||------------------------------------------------------------|
C#||--8-8-8-8-8----5-5-5--------0-0-0-0-0----0-0-0-0-0-0-0-0-0--|
G#||--8-8-8-8-8----5-5-5--------0-0-0-0-0----0-0-0-0-0-0-0-0-0--|
C#||--8-8-8-8-8----5-5-5--------0-0-0-0-0----0-0-0-0-0-0-0-0-0--|
      . . . . .    . . .        . . . . .    . . . . . . . . .

D#||---------------------------------------|
A#||---------------------------------------|
F#||---------------------------------------|
C#||--8-8-8-8-8----5-5-5--------0-0-0-0-0--|
G#||--8-8-8-8-8----5-5-5--------0-0-0-0-0--|
C#||--8-8-8-8-8----5-5-5--------0-0-0-0-0--|
      . . . . .    . . .        . . . . .


Guitar 1/2:
D#||--------------------|
A#||--------------------|
F#||--------------------|
C#||--0----0----0----0--|
G#||--0----0----0----0--|
C#||--0----0----0----0--|



Breakdown
Guitar 1/2:
D#||--------------------------------------------------------------|
A#||--------------------------------------------------------------|
F#||--------------------------------------------------------------|
C#||--8-8-8-8-8----5-5-5--------0-0-0-0-0----0---0---0-0-0-0-0-0--| x4
G#||--8-8-8-8-8----5-5-5--------0-0-0-0-0----0---0---0-0-0-0-0-0--|
C#||--8-8-8-8-8----5-5-5--------0-0-0-0-0----0---0---0-0-0-0-0-0--|
                                             .   .   . .   .


Outro
Guitar 1/2:
D#||--------------------------------------------------------------------|
A#||----------10101010---------6-6-6-6---------6-6-6-6---------6-6-6-6--|
F#||----------7-7-7-7----------3-3-3-3---------7-7-7-7---------7-7-7-7--|
C#||--8-8-8-8-8-8-8-8--5-5-5-5-5-5-5-5-0-0-0-0-x-x-x-x-0-0-0-0-x-x-x-x--| x2
G#||--8-8-8-8----------5-5-5-5---------0-0-0-0-8-8-8-8-0-0-0-0-8-8-8-8--|
C#||--8-8-8-8----------5-5-5-5---------0-0-0-0---------0-0-0-0----------|


Guitar 1:
D#||--------------------------------------------------------------------|
A#||----------10101010---------6-6-6-6---------6-6-6-6------------------|
F#||----------7-7-7-7----------3-3-3-3---------7-7-7-7------------------|
C#||--8-8-8-8-8-8-8-8--5-5-5-5-5-5-5-5-0-0-0-0-x-x-x-x-0-0-0-0-0-0-0-0--|
G#||--8-8-8-8----------5-5-5-5---------0-0-0-0-8-8-8-8-0-0-0-0-0-0-0-0--|
C#||--8-8-8-8----------5-5-5-5---------0-0-0-0---------0-0-0-0-0-0-0-0--|
                                                               . .

D#||--------------------------------------------------------------------|
A#||----------10101010---------6-6-6-6---------6-6-6-6------------------|
F#||----------7-7-7-7----------3-3-3-3---------7-7-7-7------------------|
C#||--8-8-8-8-8-8-8-8--5-5-5-5-5-5-5-5-0-0-0-0-x-x-x-x-0-0-0-0-0-0-0-0--|
G#||--8-8-8-8----------5-5-5-5---------0-0-0-0-8-8-8-8-0-0-0-0-0-0-0-0--|
C#||--8-8-8-8----------5-5-5-5---------0-0-0-0---------0-0-0-0-0-0-0-0--|
                                                       . . . . . . . .

Guitar 2:
D#||--------------------------------------------------|-------------------------8-8-8-10--------------|
A#||--10-11-10----10----------------------------------|--10-11-10----10------------------10-10-10-10--|
F#||-----------12----12-10-7-10-10-10-10-12-12-12-12--|-----------12----12-10-7-----------------------|
C#||--------------------------------------------------|-----------------------------------------------|
G#||--------------------------------------------------|-----------------------------------------------|
C#||--------------------------------------------------|-----------------------------------------------|


D#||--------------------------------------------------|-------------------------10-10-10-10-10-10-10-10--|
A#||--10-11-10----10----------------------------------|--10-11-10----10----------------------------------|
F#||-----------12----12-10-7-10-10-10-10-12-12-12-12--|-----------12----12-10-7--------------------------|
C#||--------------------------------------------------|--------------------------------------------------|
G#||--------------------------------------------------|--------------------------------------------------|
C#||--------------------------------------------------|--------------------------------------------------|




Tablature Legend
----------------
 h   hammer-on
 p   pull-off
 b   bend
 pb  pre-bend
 r   release bend
 ~   hold / vibrato
 .   palm mute
 /   slide up
 \   slide down
 *   pinch harmonic
 '   natural harmonic
 x   mute note
 T   tap
Добавлено: 06.12.2015
Другие материалы по этой песне:
  • Аккорды и текст

Страница создана 31.10.2015
http://primanota.ru/silverstein/heaven-hell-and-purgatory-chords.htm
Привет, Гость.
Предлагаем пройти революционный курс по гитаре.
Подарок от PrimaNota.Ru, забирай!