PrimaNota.ru - самый крупный в мире бесплатный архив песенных текстов, аккордов, табулатур и нот


Silverchair - Roses - аккорды и текст, таба, бас-таба, видео

Регистрация Запомнить меня
Войти через:  Facebook Google Twitter Vk Yandex Mail.ru

Silverchair - Roses - аккорды и текст, таба, бас-таба, видео

Печатать
Просмотров: 280
Уроки эстрадного вокала в Санкт-Петербурге
Авторы музыки: Daniel Johns, Ben Gillies
Авторы текста: Daniel Johns
Roses
Silverchair



Date: Sat, 14 Jul 2001 03:05:24 -0400
From: sander p 
Subject: s/silverchair/roses.crd

Band: silverchair
Song: Roses
Tuning: Dropped-D
Tabbed by: $@NDER

INTRO/2nd Verse
e|-----------------------------------------------|
B|-----------------------------------------------|
G|-4-4-4-4---------------------------------------|
D|-4-4-4-4-3-3-3-3---------0-1-0-0---------------|
A|-2-2-2-2-3-3-3-3-5-5-5-5-0-0-0-0---------------|
D|---------3-3-3-3-5-5-5-5-0-0-0-0---------------|

Chorus
e|-----------------------------------------------|
B|-----------------------------------------------|
G|-7-7-7-7-----------------11-11-11-11-----------|
D|-7-7-7-7-4-4-4-4/9-9-9-9-11-11-11-11-----------|
A|-5-5-5-5-4-4-4-4/9-9-9-9-9--9--9--9------------|
D|---------4-4-4-4/9-9-9-9-9--9--9--9------------|

e|---------------------------------------------------|
B|---------------------------------------------------|
G|-7-7-7-7-------------------------------------------|
D|-7-7-7-7-4-4-4-4/9-9-9-9--0-2-2-0-2h3-0-0-0-0-0----|
A|-5-5-5-5-4-4-4-4/9-9-9-9--0-2-2-0-2h3-0-0-0-0-0----|
D|---------4-4-4-4/9-9-9-9--0-2-2-0-2h3-0-0-0-0-0----|
                           P.M.

Bridge
e|-----------------------------------------------|
B|-----------------------------------------------|
G|-----------------------------------------------|
D|-3-3-3-3/5-5-5-5-0-0-0-0-10-10-10--------------|
A|-3-3-3-3/5-5-5-5-0-0-0-0-8--8--8---------------|
D|-3-3-3-3/5-5-5-5-0-0-0-0-8--8--8---------------|


yet another masterpiece by silverchair
have fun
$@NDER


Добавлено: 24.10.2013
Другие материалы по этой песне:

Страница создана 29.02.2012
http://primanota.ru/silverchair/roses-chords.htm
Привет, Гость.
Предлагаем пройти революционный курс по гитаре.
Подарок от PrimaNota.Ru, забирай!