PrimaNota.ru - самый крупный в мире бесплатный архив песенных текстов, аккордов, табулатур и нот


Silverchair - Satin Sheets - аккорды и текст, таба, бас-таба, видео

Регистрация Запомнить меня
Войти через:  Facebook Google Twitter Vk Yandex Mail.ru

Silverchair - Satin Sheets - аккорды и текст, таба, бас-таба, видео

Печатать
Просмотров: 176
Авторы музыки: Daniel Johns
Авторы текста: Daniel Johns
Satin Sheets
Silverchair



Date: Sat, 14 Jul 2001 03:06:11 -0400
From: sander p 
Subject: s/silverchair/satin_sheets.crd

Band: silverchair
Song: Satin Sheets
Tuning: Standard
Tabbed by: $@NDER

Intro
e|---------------------| x8
B|---------------------|
G|-------6-6-----8-8---|
D|---3-3-6-6-6-6-8-8---|
A|---3-3-4-4-6-6-6-6---|
E|---1-1-----4-4-------|

Verse
|--------------------------------|
|--------------------------------|
|--------------------------------|
|-3-3----3-3----3-3----2-2--4-4--|
|-3-3----3-3----3-3----2-2--4-4--|
|-1-1----1-1----1-1----0-0--2-2--|
Chorus
|--------------0---------------------------------|
|--------------0---------------------------------|
|-------6-6-6--x-----------6-6-6-----------------|
|-3-3-3-4-4-4--2-----3-3-3-4-4-4--2-2--2--2-2--2-|
|-3-3-3-4-4-4--2-----3-3-3-4-4-4--2-2--2--2-2--2-|
|-1-1-1-4-4-4--0-----1-1-1-4-4-4--0-0--0--0-0--0-|
                                  * *     * *      *=PALM MUTE

|--------------0-------------------------------------------------|
|--------------0-------------------------------------------------|
|-------6-6-6--x-----------6-6-6---------------------------------|
|-3-3-3-4-4-4--2-----3-3-3-4-4-4--2-2--2--2-2--2--2-2--2--2-2--2-|
|-3-3-3-4-4-4--2-----3-3-3-4-4-4--2-2--2--2-2--2--2-2--2--2-2--2-|
|-1-1-1-4-4-4--0-----1-1-1-4-4-4--0-0--0--0-0--0--0-0--0--0-0--0-|
                                     * *     * *      * *     * *

Interlude
|-----------|-----------|
|-----------|-----------|
|---9-9-9---|-----------|
|---x-x-x---|---0-2-2---|
|---7-7-7---|---0-2-2---|
|---0-0-0---|---0-0-0---|


Добавлено: 19.01.2014
Другие материалы по этой песне:

Страница создана 04.03.2012
http://primanota.ru/silverchair/satin-sheets-chords.htm
Привет, Гость.
Предлагаем пройти революционный курс по гитаре.
Подарок от PrimaNota.Ru, забирай!