PrimaNota.ru - самый крупный в мире бесплатный архив песенных текстов, аккордов, табулатур и нот


Silverchair - Suicidal Dream Guitar - таба, видео

Регистрация Запомнить меня
Войти через:  Facebook Google Twitter Vk Yandex Mail.ru

Silverchair - Suicidal Dream Guitar - таба, видео

Печатать
Просмотров: 84
Silverchair, suicidal dream corrected

  Intro
e|----------------------------------|    |----------------------0------|
b|----------------------------------|    |------------------------0----|
g|-----4------4---------4-----4-----| x3 |-----4------4-------------0--|
d|---4------4---4-----4-----4---4---|    |---4------4---4-----2--------|
a|-2------------------------------0-|    |-2----------------2----------|
e|-------3--------3-0-----2---------|    |-------3--------0------------|

Verse(repeat intro two times)

Chorus
e|-2---2---0---3-|
b|-2---4---2---2-|
g|-4---4---2---0-| x4
d|-4---3---0---0-|
a|-2---2---0---0-|
e|-2---2---0---3-|

Verse

Chorus till end
     
Добавлено: 26.06.2013
Другие материалы по этой песне:
  • Аккорды и текст

Страница создана 26.06.2013
http://primanota.ru/silverchair/suicidal-dream-guitar-chords.htm
Привет, Гость.
Предлагаем пройти революционный курс по гитаре.
Подарок от PrimaNota.Ru, забирай!