PrimaNota.ru - самый крупный в мире бесплатный архив песенных текстов, аккордов, табулатур и нот


Sick Puppies - I Hate You - текст песни, таба, видео

Регистрация Запомнить меня
Войти через:  Facebook Google Twitter Vk Yandex Mail.ru

Sick Puppies - I Hate You - текст песни, таба, видео

Печатать
Просмотров: 758
Song: I Hate You
Artist: Sick Puppies
Tuning: Drop C: CGCFAD

Legend:     / slide up     \slide down     ~ hold out note     . palm mute

            b bend     r return from bend     x scratch note   * harmonic 

Intro/Verse (play once before Shim sings, and once after)
|--------------------------------------|
|--------------------------------------|
|-10\7~~~------------------------------|
|---------7/10~~-7-7b8r7------7~~~-----|
|------------------------8~~~------8-7-|
|--------------------------------------|

Pre-Chorus
|-------------------------------------------------------|
|-------------------------------------------------------|
|-----------7~~~------------5~~~------------7~~~--------|
|-5--5--5---------7--7--7---------5--5--5---------1~~~~-|
|-5--5--5---------7--7--7---------5--5--5---------1~~~~-|
|-5--5--5---------7--7--7---------5--5--5---------1~~~~-|
  .  .  .         .  .  .         .  .  .
Chorus 
|-----------------------------------------------------|
|-----------------------------------------------------|
|-----------------------------------------------------|
|-8-8-8-8-7-7-7-7-0-0-0-0-10-10-10-10-8-8-8-8-7-7-7-7-|
|-8-8-8-8-7-7-7-7-0-0-0-0-10-10-10-10-8-8-8-8-7-7-7-7-|
|-8-8-8-8-7-7-7-7-0-0-0-0-10-10-10-10-8-8-8-8-7-7-7-7-|

|-----------------------------------------------------------|
|-----------------------------------------------------------|
|-7----9-9---10-10------------------------------------------|
|-7----9-9---10-10---10-10--8-8-8-8-7-7-7-7-5-5-5-5-7-7-7-7-|
|-5----7-7---8--8----10-10--8-8-8-8-7-7-7-7-5-5-5-5-7-7-7-7-|
|--000-----0-------0-10-10--8-8-8-8-7-7-7-7-5-5-5-5-7-7-7-7-|
   ...     .       .              
|---------------------------------|
|---------------------------------|
|---------------------------------|
|-6-6-6-6-6-6-6-6-5-5-5-5-5-5-5-5-|
|-6-6-6-6-6-6-6-6-5-5-5-5-5-5-5-5-|
|-6-6-6-6-6-6-6-6-5-5-5-5-5-5-5-5-|
  . . . . . . . . . . . . . . . .               x2
|------------------------------------------------|
|------------------------------------------------|
|-------------------11\-------------------12-11\-|
|-------------------x---------------------x--x---|
|-------------------9\--------------------10-9\--|
|-10h12-0x-10h12-0x-----10h12-0x-10h12-0x--------|
Verse 2 (this part is hard to hear, but it IS played)      x2     
|-----------------------------------------------------------|
|-----------------------------------------------------------|
|-----------------------------------------------------------|
|-----------------------------------------------------------|
|-----------3-5-----------3-5----------3-5------------3-5-3-|
|-0-0-0-000-----3-3-3-333-----5-5-5-555-----3-3-3-333-------|
  . . . ... . . . . . ... . . . . . ... . . . . . ...
|------------------------------------|
|------------------------------------|
|-10\7~~~----------------------------|
|---------7/10~~-7b8r7------7~~~-----|
|----------------------8~~~------8-7-|
|------------------------------------|

Pre-Chorus 2
|------------------------------------------------------------------|
|------------------------------------------------------------------|
|-----------7~~~------------5~~~------------7~~~-------------------|
|-5--5--5---------7--7--7---------5--5--5---------1-1-1-1-1-1-xxxx-|
|-5--5--5---------7--7--7---------5--5--5---------1-1-1-1-1-1-xxxx-|
|-5--5--5---------7--7--7---------5--5--5---------1-1-1-1-1-1-xxxx-|
  .  .  .         .  .  .         .  .  .
Chorus 2
|-----------------------------------------------------|
|-----------------------------------------------------|
|-----------------------------------------------------|
|-8-8-8-8-7-7-7-7-0-0-0-0-10-10-10-10-8-8-8-8-7-7-7-7-|
|-8-8-8-8-7-7-7-7-0-0-0-0-10-10-10-10-8-8-8-8-7-7-7-7-|
|-8-8-8-8-7-7-7-7-0-0-0-0-10-10-10-10-8-8-8-8-7-7-7-7-|

|-----------------------------------------------------------|
|-----------------------------------------------------------|
|-7----9-9---10-10------------------------------------------|
|-7----9-9---10-10---10-10--8-8-8-8-7-7-7-7-5-5-5-5-7-7-7-7-|
|-5----7-7---8--8----10-10--8-8-8-8-7-7-7-7-5-5-5-5-7-7-7-7-|
|--000-----0-------0-10-10--8-8-8-8-7-7-7-7-5-5-5-5-7-7-7-7-|
   ...     .       .
|------------------------------------|
|------------------------------------|
|------------------------------------|
|-6-6-6-6-6-6-6-6-5-5-5-5-5-5-xxxxxx-|
|-6-6-6-6-6-6-6-6-5-5-5-5-5-5-xxxxxx-|
|-6-6-6-6-6-6-6-6-5-5-5-5-5-5-xxxxxx-|

|----------------------------------------------------------------------|
|----------------------------------------------------------------------|
|-------------------11\-------------------12-11\-------------------/11-|
|-------------------x---------------------x--x----------------------x--|
|-------------------9\--------------------10-9\---------------------9--|
|-10h12-0x-10h12-0x-----10h12-0x-10h12-0x--------10h12-0x-10h12-0x-----|

|------------------------|
|------------------------|
|------------------------|
|------------------------|
|-------------------xxxx-|
|-10h12-0x-10h12-0x-xxxx-|
Bridge
|---------------------------------------------------|
|---------------------------------------------------|
|---------------------------------------7*-7*-7*-7*-|
|---------------------------------------------------|
|----------------0x0x-------------------------------|
|-10h12-0x-10h12-0x0x-10h12-0x-10h12-0x-------------|
                 . .                     
|---------------------------------------------------|
|---------------------------------------------------|
|---------------------------------------7*-7*-------|
|---------------------------------------------7*-7*-|
|----------------0x0x-------------------------------|
|-10h12-0x-10h12-0x0x-10h12-0x-10h12-0x-------------|

|---------------------------------------------------|
|---------------------------------------------------|
|---------------------------------------------------|
|-0-0--------3-3--------8-8--------7\-----10-9-10-9-|
|-0-0--------3-3--------8-8--------7\---------------|
|-0-0--------3-3--------8-8--------7\---------------|

Chorus 3
|-----------------------------------------------------|
|-----------------------------------------------------|
|-----------------------------------------------------|
|-8-8-8-8-7-7-7-7-0-0-0-0-10-10-10-10-8-8-8-8-7-7-7-7-|
|-8-8-8-8-7-7-7-7-0-0-0-0-10-10-10-10-8-8-8-8-7-7-7-7-|
|-8-8-8-8-7-7-7-7-0-0-0-0-10-10-10-10-8-8-8-8-7-7-7-7-|

|--------------------------------------------------------------------|
|--------------------------------------------------------------------|
|-7----9-9---10------------------------------------------------------|
|-7----9-9---10----------------------8-8-8-8-7-7-7-7-5-5-5-5-7-7-7-7-|
|-5----7-7---8-----------------------8-8-8-8-7-7-7-7-5-5-5-5-7-7-7-7-|
|--000-----0----101010101010101010---8-8-8-8-7-7-7-7-5-5-5-5-7-7-7-7-|
   ...     .    . . . . . . . . .
|---------------------------------|
|---------------------------------|
|---------------------------------|
|-6-6-6-6-6-6-6-6-5-5-5-5-5-5-5-5-|
|-6-6-6-6-6-6-6-6-5-5-5-5-5-5-5-5-|
|-6-6-6-6-6-6-6-6-5-5-5-5-5-5-5-5-|
  . . . . . . . . . . . . . . . .

Outro
|---------------------------------------------------------------------------|
|---------------------------------------------------------------------------|
|-------7-------7-------7------------------7-------7-7---9-9---10-10--------|
|-8-8---7-7-7---7-0-0---7-11-11------8-8---7-7-7---7-7---9-9---10-10---10-10|
|-8-8---5-7-7---5-0-0---5-11-11-0-0--8-8---5-7-7---5-5---7-7---8--8----10-10|
|-8-8-0---7-7-0---0-0-0---11-11-0-0--8-8-0---7-7-0----000----0-------0-10-10|
      .       .       .         . .      .       .     ...     .       .
|-----------------------------------------------------------------|
|-----------------------------------------------------------------|
|-------7-------7-------7-----------------------------------------|
|-8-8---7-7-7---7-5-5---7-3-3-----6-6-6-6-6-6-6-6-5-5-5-5-5-5-5-5-|
|-8-8---5-7-7---5-5-5---5-3-3-----6-6-6-6-6-6-6-6-5-5-5-5-5-5-5-5-|
|-8-8-0---7-7-0---5-5-0---3-3-8\--6-6-6-6-6-6-6-6-5-5-5-5-5-5-5-5-|
      .       .       .           . . . . . . . . . . . . . . . . 
|----------------------------------------------------------------------|
|----------------------------------------------------------------------|
|-------------------11\------------------------------------------11\---|
|-------------------x--------------------------------------------x-----|
|-------------------9\--------------------xxxx-------------------9\----|
|-10h12-0x-10h12-0x-----10h12-0x-10h12-0x-xxxx-10h12-0x-10h12-0x-------|

|------------------|
|------------------|
|------------------| Sorry about the weird spacing here.  I didn't have
|----------------0-| much room to work with.
|-10h12-0x-10h12-0-|
|-10h12-0x-10h12-0-|

Enjoy!
Добавлено: 24.03.2012
Другие материалы по этой песне:
  • Аккорды и текст

Страница создана 24.03.2012
http://primanota.ru/sick-puppies/i-hate-you-chords.htm
Привет, Гость.
Предлагаем пройти революционный курс по гитаре.
Подарок от PrimaNota.Ru, забирай!