PrimaNota.ru - самый крупный в мире бесплатный архив песенных текстов, аккордов, табулатур и нот


Sick Puppies - Pitiful - текст песни, таба, видео

Регистрация Запомнить меня
Войти через:  Facebook Google Twitter Vk Yandex Mail.ru

Sick Puppies - Pitiful - текст песни, таба, видео

Печатать
Просмотров: 357
Song: Pitiful
Artist: Sick Puppies
Tabber: Max Deuble (www.myspace.com/maxpd)

Once again, another great song from Sick Puppies off their new album. This tab was 
so i took the liberty to tab it out.
Any comments or suggestions feel free to email me at d__o__a@hotmail.com.


Gtr I (C G C F A D) - 'Lead'
Gtr II (C G C F A D) - 'Lead'
Gtr III (C G C F A D) - 'Rhythm'
Gtr IV (C G C F) - Bass guitar

  Q=75
 4/4
  Gtr I
|-----------------|-----------------|
|-----------------|-----------------|
|-----------------|-----------------|
|-7-7-7-7-7-7-7-7-|-5-5-5-5-5-5-5-5-|
|-5-5-5-5-5-5-5-5-|-3-3-3-3-3-3-3-3-|
|-----------------|-----------------|


|-----------------|------------------|
|-----------------|------------------|
|-----------------|------------------|
|-5-5-5-5-5-5-5-5-|-3-3-3-3-5-5-10-9-|
|-2-2-2-2-2-2-2-2-|-1-1-1-1-3-3--8-7-|
|-----------------|------------------|


  Gtr I
|---------------------------|-----------------------------------|
|---------------------------|-----------------------------------|
|---------------------------|-----------------------------------|
|-7---7--7--7--7---7--7--7--|--5-----5--5---5---5-----5--5---5--|
|-5---5--5--5--5---5--5--5--|--3-----3--3---3---3-----3--3---3--|
|---------------------------|-----------------------------------|
|
| Gtr III
|---------------------------|-----------------------------------|
|---------------------------|-----------------------------------|
|-7-7-7-----7--7-7-7-----7--|-10-10-10-----10--10-10-10-----10--|
|-x-x-x-----x--x-x-x-----x--|--x--x--x------x---x--x--x------x--|
|-5-5-5-----5--5-5-5-----5--|--8--8--8------8---8--8--8------8--|
|---------------------------|-----------------------------------|


|-----------------------------------|-------------------------------------|
|-----------------------------------|-------------------------------------|
|-----------------------------------|-------------------------------------|
|--5-----5--5---5---5-----5--5---5--|--3-----3--3--3---5-----5--10-----9--|
|--2-----2--2---2---2-----2--2---2--|--1-----1--1--1---3-----3---8-----7--|
|-----------------------------------|-------------------------------------|
|
|-----------------------------------|-------------------------------------|
|-----------------------------------|-------------------------------------|
|-12-12-12-----12--12-12-12-----12--|-15-15-15--------12-12-12--15-15-15--|
|--x--x--x------x---x--x--x------x--|--x--x--x---------x--x--x---x--x--x--|
|-10-10-10-----10--10-10-10-----10--|-13-13-13--------10-10-10--13-13-13--|
|-----------------------------------|-------------------------------------|


  Gtr II
|-------------------------|-----------------------------|
|-------------------------|-----------------------------|
|-------------------------|-----------------------------|
|-0-0-----0-----0-----0-3-|-(3)-3-3-----3-----3-----3-5-|
|-0-0-----0-----0-----0-3-|-(3)-3-3-----3-----3-----3-5-|
|-0-0-----0-----0-----0-3-|-(3)-3-3-----3-----3-----3-5-|
|
| Gtr III
|-------------------------|-----------------------------|
|-------------------------|-----------------------------|
|-----7-7---7-7---7-7-----|---------7-7---7-7---7-7-----|
|-----x-x---x-x---x-x-----|---------x-x---x-x---x-x-----|
|-----5-5---5-5---5-5-----|---------5-5---5-5---5-5-----|
|-------------------------|-----------------------------|


|--------------------------|---------------------------------------|
|--------------------------|---------------------------------------|
|--------------------------|---------------------------------------|
|-(5)-5-5-----5-----5------|-------------------------------------0-|
|-(5)-5-5-----5-----5------|-0-12-15-0-15-12-0-11-12-0-5-0-3-5-6-0-|
|-(5)-5-5-----5-----5------|-0-12-15-0-15-12-0-11-12-0-5-0-3-5-6-0-|
|
|--------------------------|---------------------------------------|
|--------------------------|---------------------------------------|
|---------2-2---3-3---7-7--|---------------------------------------|
|---------x-x---x-x---x-x--|---------------------------------------|
|---------0-0---1-1---5-5--|-0-12-15-0-15-12-0-11-12-0-5-0-3-5-6---|
|--------------------------|-0-12-15-0-15-12-0-11-12-0-5-0-3-5-6---|


|-----------------------------|------------------------------|
|-----------------------------|------------------------------|
|-----------------------------|------------------------------|
|-(0)-0-0-----0-----0-----0-3-|-(3)-3-3-----3-----3-----3-5--|
|-(0)-0-0-----0-----0-----0-3-|-(3)-3-3-----3-----3-----3-5--|
|-(0)-0-0-----0-----0-----0-3-|-(3)-3-3-----3-----3-----3-5--|
|
|-----------------------------|------------------------------|
|-----------------------------|------------------------------|
|---------7-7---7-7---7-7-----|---------7-7---7-7---7-7------|
|---------x-x---x-x---x-x-----|---------x-x---x-x---x-x------|
|---------5-5---5-5---5-5-----|---------5-5---5-5---5-5------|
|-----------------------------|------------------------------|


|--------------------------|---------------------------------------|
|--------------------------|---------------------------------------|
|--------------------------|---------------------------------------|
|-(5)-5-5-----5-----5------|---------------------------------------|
|-(5)-5-5-----5-----5------|-0-12-15-0-15-12-0-11-12-0-5-0-3-5-6-0-|
|-(5)-5-5-----5-----5------|-0-12-15-0-15-12-0-11-12-0-5-0-3-5-6-0-|
|
|--------------------------|---------------------------------------|
|--------------------------|---------------------------------------|
|---------2-2---3-3---7-7--|---------------------------------------|
|---------x-x---x-x---x-x--|---------------------------------------|
|---------0-0---1-1---5-5--|-0-12-15-0-15-12-0-11-12-0-5-0-3-5-6-0-|
|--------------------------|-0-12-15-0-15-12-0-11-12-0-5-0-3-5-6-0-|


   PM-------------------------------------------------------------------------|
|-----------------------------------------|-----------------------------------|
|-----------------------------------------|-----------------------------------|
|-10-10-10-10-9-9-9-9-10-10-10-10-9-9-9-9-|-----------------------------------|
|--8--8--8--8-8-8-8-8--8--8--8--8-8-8-8-8-|-8-8-8-8-8-8-8-8-7-7-7-7-7-7-7-7---|
|--8--8--8--8-8-8-8-8--8--8--8--8-8-8-8-8-|-5-5-5-5-5-5-5-5-5-5-5-5-5-5-5-5---|
|--8--8--8--8-8-8-8-8--8--8--8--8-8-8-8-8-|-5-5-5-5-5-5-5-5-5-5-5-5-5-5-5-5---|


  Q=96
  Gtr IV
   PM---------------------------|
|-------------------------------|
|-------------------------------|
|-------------------------------|
|-------------------------------|
|-------------------------------|
|-12-0-0-12-0-0-13-0-0-11-0-0---|


    Q=75
   4/4
    Gtr I
||----------------------------|-----------------------------------|
||o---------------------------|-----------------------------------|
||----------------------------|-----------------------------------|
||--7---7--7--7--7---7--7--7--|--5-----5--5---5---5-----5--5---5--|
||o-5---5--5--5--5---5--5--5--|--3-----3--3---3---3-----3--3---3--|
||----------------------------|-----------------------------------|
|
|   Gtr III
||----------------------------|-----------------------------------|
||o---------------------------|-----------------------------------|
||--7-7-7-----7--7-7-7-----7--|-10-10-10-----10--10-10-10-----10--|
||--x-x-x-----x--x-x-x-----x--|--x--x--x------x---x--x--x------x--|
||o-5-5-5-----5--5-5-5-----5--|--8--8--8------8---8--8--8------8--|
||----------------------------|-----------------------------------|


|-----------------------------------|----------------------------------------|
|-----------------------------------|----------------------------------------|o
|-----------------------------------|----------------------------------------|
|--5-----5--5---5---5-----5--5---5--|--3-----3--3--3---5-----5--10-----9-----|
|--2-----2--2---2---2-----2--2---2--|--1-----1--1--1---3-----3---8-----7--o--|
|-----------------------------------|----------------------------------------|
|
|-----------------------------------|--------------------------------------|
|-----------------------------------|-------------------------------------o|
|-12-12-12-----12--12-12-12-----12--|-15-15-15--------12-12-12--15-15-15---|
|--x--x--x------x---x--x--x------x--|--x--x--x---------x--x--x---x--x--x---|
|-10-10-10-----10--10-10-10-----10--|-13-13-13--------10-10-10--13-13-13--o|
|-----------------------------------|--------------------------------------|


  Gtr II
              PM--------------------------------|
|-----------|-----------------------------------|
|-----------|-----------------------------------|
|-----------|-----------------------------------|
|-10--------|-----------------7-7-7-7-7-7-7-7---|
|-10--------|-7-7-7-7-7-7-7-7-7-7-7-7-7-7-7-7---|
|-10--------|-7-7-7-7-7-7-7-7-7-7-7-7-7-7-7-7---|


  Gtr II
|-------------------------|-----------------------------|
|-------------------------|-----------------------------|
|-------------------------|-----------------------------|
|-0-0-----0-----0-----0-3-|-(3)-3-3-----3-----3-----3-5-|
|-0-0-----0-----0-----0-3-|-(3)-3-3-----3-----3-----3-5-|
|-0-0-----0-----0-----0-3-|-(3)-3-3-----3-----3-----3-5-|
|
| Gtr III
|-------------------------|-----------------------------|
|-------------------------|-----------------------------|
|-----7-7---7-7---7-7-----|---------7-7---7-7---7-7-----|
|-----x-x---x-x---x-x-----|---------x-x---x-x---x-x-----|
|-----5-5---5-5---5-5-----|---------5-5---5-5---5-5-----|
|-------------------------|-----------------------------|


|--------------------------|---------------------------------------|
|--------------------------|---------------------------------------|
|--------------------------|---------------------------------------|
|-(5)-5-5-----5-----5------|-------------------------------------0-|
|-(5)-5-5-----5-----5------|-0-12-15-0-15-12-0-11-12-0-5-0-3-5-6-0-|
|-(5)-5-5-----5-----5------|-0-12-15-0-15-12-0-11-12-0-5-0-3-5-6-0-|
|
|--------------------------|---------------------------------------|
|--------------------------|---------------------------------------|
|---------2-2---3-3---7-7--|---------------------------------------|
|---------x-x---x-x---x-x--|---------------------------------------|
|---------0-0---1-1---5-5--|-0-12-15-0-15-12-0-11-12-0-5-0-3-5-6---|
|--------------------------|-0-12-15-0-15-12-0-11-12-0-5-0-3-5-6---|


|-----------------------------|------------------------------|
|-----------------------------|------------------------------|
|-----------------------------|------------------------------|
|-(0)-0-0-----0-----0-----0-3-|-(3)-3-3-----3-----3-----3-5--|
|-(0)-0-0-----0-----0-----0-3-|-(3)-3-3-----3-----3-----3-5--|
|-(0)-0-0-----0-----0-----0-3-|-(3)-3-3-----3-----3-----3-5--|
|
|-----------------------------|------------------------------|
|-----------------------------|------------------------------|
|---------7-7---7-7---7-7-----|---------7-7---7-7---7-7------|
|---------x-x---x-x---x-x-----|---------x-x---x-x---x-x------|
|---------5-5---5-5---5-5-----|---------5-5---5-5---5-5------|
|-----------------------------|------------------------------|


|--------------------------|---------------------------------------|
|--------------------------|---------------------------------------|
|--------------------------|---------------------------------------|
|-(5)-5-5-----5-----5------|---------------------------------------|
|-(5)-5-5-----5-----5------|-0-12-15-0-15-12-0-11-12-0-5-0-3-5-6-0-|
|-(5)-5-5-----5-----5------|-0-12-15-0-15-12-0-11-12-0-5-0-3-5-6-0-|
|
|--------------------------|---------------------------------------|
|--------------------------|---------------------------------------|
|---------2-2---3-3---7-7--|---------------------------------------|
|---------x-x---x-x---x-x--|---------------------------------------|
|---------0-0---1-1---5-5--|-0-12-15-0-15-12-0-11-12-0-5-0-3-5-6-0-|
|--------------------------|-0-12-15-0-15-12-0-11-12-0-5-0-3-5-6-0-|


   PM-------------------------------------------------------------------------|
|-----------------------------------------|-----------------------------------|
|-----------------------------------------|-----------------------------------|
|-10-10-10-10-9-9-9-9-10-10-10-10-9-9-9-9-|-----------------------------------|
|--8--8--8--8-8-8-8-8--8--8--8--8-8-8-8-8-|-8-8-8-8-8-8-8-8-7-7-7-7-7-7-7-7---|
|--8--8--8--8-8-8-8-8--8--8--8--8-8-8-8-8-|-5-5-5-5-5-5-5-5-5-5-5-5-5-5-5-5---|
|--8--8--8--8-8-8-8-8--8--8--8--8-8-8-8-8-|-5-5-5-5-5-5-5-5-5-5-5-5-5-5-5-5---|


  Q=96
 5/4
  Gtr IV
   PM-----------------------------------------------------------------------|
|------------------------------------|--------------------------------------|
|------------------------------------|--------------------------------------|
|------------------------------------|--------------------------------------|
|------------------------------------|--------------------------------------|
|------------------------------------|--------------------------------------|
|-12-0-0-12-0-0-12-0-0-13-0-0-11-0-0-|-12-0-0-12-0-0-12-0-0-13-0-0-11-0-0---|


 5/4
  Gtr II
   PM-----------------------------------------------------------------------|
|------------------------------------|--------------------------------------|
|------------------------------------|--------------------------------------|
|------------------------------------|--------------------------------------|
|------------------------------------|--------------------------------------|
|------------------------------------|--------------------------------------|
|-12-0-0-12-0-0-12-0-0-13-0-0-11-0-0-|-12-0-0-12-0-0-12-0-0-13-0-0-11-0-0---|


 4/4
|-------------------------------|-------------------------------------|
|-------------------------------|-------------------------------------|
|-10-10-10-10-10-10-9-9-9-9-9-9-|-12-12-12-12-12-12-10-10-10-10-10-10-|
|--x--x--x--x--x--x-x-x-x-x-x-x-|--x--x--x--x--x--x--x--x--x--x--x--x-|
|--8--8--8--8--8--8-7-7-7-7-7-7-|-10-10-10-10-10-10--8--8--8--8--8--8-|
|-------------------------------|-------------------------------------|


|-------------------------------------|-------------------------------------|
|-------------------------------------|-------------------------------------|
|-14-14-14-14-14-14-12-12-12-12-12-12-|-15-15-15-15-15-15-15-15-15-15-15-15-|
|--x--x--x--x--x--x--x--x--x--x--x--x-|--x--x--x--x--x--x--x--x--x--x--x--x-|
|-12-12-12-12-12-12-10-10-10-10-10-10-|-13-13-13-13-13-13-13-13-13-13-13-13-|
|-------------------------------------|-------------------------------------|


  Q=75
 4/4
|-----------------------------------------|
|-----------------------------------------|
|-----------------------------------------|
|-----------------------------------------|
|-0-12-15-0-15-12-0-11-12-0-11-12-0-8-7-0-|
|-0-12-15-0-15-12-0-11-12-0-11-12-0-8-7-0-|


|--------------------------------------|
|--------------------------------------|
|-----------------9-9-9-9-10-10-10-10--|
|--------------------------------------|
|-7-8-0-5-7-5-3-0-7-7-7-7--8--8--8--8--|
|-7-8-0-5-7-5-3-0----------------------|


|-----------------------------------------|-------------------------|
|-----------------------------------------|-------------------------|
|-----------------------------------------|-------------------------|
|-----------------------------------------|-------------------6---6-|
|-0-12-15-0-15-12-0-11-12-0-11-12-0-8-7-0-|-7-8-0-5-7-5-3-0-0-6-0-6-|
|-0-12-15-0-15-12-0-11-12-0-11-12-0-8-7-0-|-7-8-0-5-7-5-3-0-0-6-0-6-|


  Gtr II
|---------|------|
|---------|------|
|---------|------|
|-0-------|-3----|
|-0-------|-3----|
|-0-------|-3----|


       PM----------------|
|------------------------|
|------------------------|
|------------------------|
|-5------------------0---|
|-5----5-5-5-5-5-7-8-0---|
|-5----5-5-5-5-5-7-8-0---|


    Gtr II
||------------------------------|-----------------------------|
||o-----------------------------|-----------------------------|
||------------------------------|-----------------------------|
||--(0)-0-0-----0-----0-----0-3-|-(3)-3-3-----3-----3-----3-5-|
||o-(0)-0-0-----0-----0-----0-3-|-(3)-3-3-----3-----3-----3-5-|
||--(0)-0-0-----0-----0-----0-3-|-(3)-3-3-----3-----3-----3-5-|
|
|   Gtr III
||------------------------------|-----------------------------|
||o-----------------------------|-----------------------------|
||----------7-7---7-7---7-7-----|---------7-7---7-7---7-7-----|
||----------x-x---x-x---x-x-----|---------x-x---x-x---x-x-----|
||o---------5-5---5-5---5-5-----|---------5-5---5-5---5-5-----|
||------------------------------|-----------------------------|


|--------------------------|----------------------------------------||
|--------------------------|---------------------------------------o||
|--------------------------|----------------------------------------||
|-(5)-5-5-----5-----5------|-------------------------------------0--||
|-(5)-5-5-----5-----5------|-0-12-15-0-15-12-0-11-12-0-5-0-3-5-6-0-o||
|-(5)-5-5-----5-----5------|-0-12-15-0-15-12-0-11-12-0-5-0-3-5-6-0--||
|
|--------------------------|----------------------------------------||
|--------------------------|---------------------------------------o||
|---------2-2---3-3---7-7--|----------------------------------------||
|---------x-x---x-x---x-x--|----------------------------------------||
|---------0-0---1-1---5-5--|-0-12-15-0-15-12-0-11-12-0-5-0-3-5-6---o||
|--------------------------|-0-12-15-0-15-12-0-11-12-0-5-0-3-5-6----||


|-----------------------------|-----------------------------|
|-----------------------------|-----------------------------|
|-----------------------------|-----------------------------|
|-(0)-0-0-----0-----0-----0-3-|-(3)-3-3-----3-----3-----3-5-|
|-(0)-0-0-----0-----0-----0-3-|-(3)-3-3-----3-----3-----3-5-|
|-(0)-0-0-----0-----0-----0-3-|-(3)-3-3-----3-----3-----3-5-|
|
|-----------------------------|-----------------------------|
|-----------------------------|-----------------------------|
|-------7--7--7--7--7--7--7---|-------7--7--7--7--7--7--7---|
|-------x--x--x--x--x--x--x---|-------x--x--x--x--x--x--x---|
|-------5--5--5--5--5--5--5---|-------5--5--5--5--5--5--5---|
|-----------------------------|-----------------------------|


|----------------------------|
|----------------------------|
|----------------------------|
|-(5)-5-5-----5-----5--------|
|-(5)-5-5-----5-----5--------|
|-(5)-5-5-----5-----5--------|
|
|----------------------------|
|----------------------------|
|-------7--7--7--7--7--7--7--|
|-------x--x--x--x--x--x--x--|
|-------5--5--5--5--5--5--5--|
|----------------------------|


|-----------------------------------------|-------------------------|-------|
|-----------------------------------------|-------------------------|-------|
|-----------------------------------------|-------------------------|-------|
|-----------------------------------------|-------------------1---1-|-(1)---|
|-0-12-15-0-15-12-0-11-12-0-11-12-0-8-7-0-|-7-8-0-5-7-5-3-0-0-1-0-1-|-(1)---|
|-0-12-15-0-15-12-0-11-12-0-11-12-0-8-7-0-|-7-8-0-5-7-5-3-0-0-1-0-1-|-(1)---|


|-|
|-|
|-|
|-|
|-|
|-|
Добавлено: 25.02.2012
Другие материалы по этой песне:

Страница создана 25.02.2012
http://primanota.ru/sick-puppies/pitiful-chords.htm
Привет, Гость.
Предлагаем пройти революционный курс по гитаре.
Подарок от PrimaNota.Ru, забирай!