PrimaNota.ru - самый крупный в мире бесплатный архив песенных текстов, аккордов, табулатур и нот


Sick Puppies - Shouldve Known Better - текст песни, таба, бас-таба, видео

Регистрация Запомнить меня
Войти через:  Facebook Google Twitter Vk Yandex Mail.ru

Sick Puppies - Shouldve Known Better - текст песни, таба, бас-таба, видео

Печатать
Просмотров: 392
Sick Puppies
Should've Known Better
CGCFAD
I'm only posting one guitar in this song except for the solo. 

Legend:     * harmonic     \ slide down     x scratch note     . palm mute
 
            b bend       r return from bend h hammer-on     p pull-off
 
            x\\\\\\\  pick slide down on strings         v vibrato    

Intro
|------------------------------------------------------|
|------------------------------------------------------|
|-7*--7*--7*7*7*7*7*-----------------------------------|
|--------------------0--2-3-0-2-3-5-0-3-5-7-0-8-8-8-7\-|
|--------------------0--2-3-0-2-3-5-0-3-5-7-0-8-8-8-7\-|
|--------------------0--2-3-0-2-3-5-0-3-5-7-0-8-8-8-7\-|

|---------------------------------------|
|---------------------------------------|
|-----------------------------7*--7*-7*-|
|-2-3-0-2-3-5-0-3-5-7-0-8-8-8-7*--7*-7*-|
|-2-3-0-2-3-5-0-3-5-7-0-8-8-8-----------|
|-2-3-0-2-3-5-0-3-5-7-0-8-8-8-----------|

Verse 1 (Wait for about 11 seconds.)
|---------------------------------------------------------------------------|
|---------------------------------------------------------------------------|
|-7*7*7*7*7*----------------------------------------------------------------|
|------------0--2-3-0-2-3-5-0-3-5-7-0-8-8-8-7\--2-3-0-2-3-5-0-3-5-7-0-8-8-8-|
|------------0--2-3-0-2-3-5-0-3-5-7-0-8-8-8-7\--2-3-0-2-3-5-0-3-5-7-0-8-8-8-|
|------------0--2-3-0-2-3-5-0-3-5-7-0-8-8-8-7\--2-3-0-2-3-5-0-3-5-7-0-8-8-8-|

|------------------------------------------------------------------|
|------------------------------------------------------------------|
|------------------------------------------------------------------|
|-0--2-3-0-2-3-5-0-3-5-7-0-8-8-8-7\--2-3-0-2-3-5-0-3-5-7-0-x-x-x-x-|
|-0--2-3-0-2-3-5-0-3-5-7-0-8-8-8-7\--2-3-0-2-3-5-0-3-5-7-0-x-x-x-x-|
|-0--2-3-0-2-3-5-0-3-5-7-0-8-8-8-7\--2-3-0-2-3-5-0-3-5-7-0-x-x-x-x-|

Pre-Chorus 1 
|---------------------------------------------------------------------|
|---------------------------------------------------------------------|
|-10-10-10-10-10--10-10-10-10-10--10-10-------------------------------|
|-10-10-10-10-10--10-10-10-10-10--10-10--0--0-0-0-0--0-0-0-0-0--0-0-0-|
|-8--8--8--8--8---8--8--8--8--8---8--8---0--0-0-0-0--0-0-0-0-0--0-0-0-|
|----------------------------------------0--0-0-0-0--0-0-0-0-0--0-0-0-|

|-----------------------------------------------------------------------|
|-----------------------------------------------------------------------|
|-----------------------------------------------------------------------|
|-10--10-10-10-10-10-10-10-10-10-10-10-10-10-10-10--5--5-5-5-5-5-5-5-7\-|
|-10--10-10-10-10-10-10-10-10-10-10-10-10-10-10-10--5--5-5-5-5-5-5-5-7\-|
|-10--10-10-10-10-10-10-10-10-10-10-10-10-10-10-10--5--5-5-5-5-5-5-5-7\-|

Chorus 1
|---------------------------------------------------------------------------|
|---------------------------------------------------------------------------|
|---------------------------------------------------------------------------|
|-3-3-3-3-3-3-3-3-3-3-3-3-3-3-3-3-7-7-7-7-7-7-7-7-7-7-7-7-7-7-7-7-0--0-0--0-|
|-3-3-3-3-3-3-3-3-3-3-3-3-3-3-3-3-7-7-7-7-7-7-7-7-7-7-7-7-7-7-7-7-0--0-0--0-|
|-3-3-3-3-3-3-3-3-3-3-3-3-3-3-3-3-7-7-7-7-7-7-7-7-7-7-7-7-7-7-7-7-0--0-0--0-|
                                                                  .  . .  .
|-------------------------------------------------|
|-------------------------------------------------|
|-10-10-9--7--------------------------------------|
|------------10--8-8-8-8-8--10-10-10-10-10--10-10-|
|----------------8-8-8-8-8--10-10-10-10-10--10-10-|
|----------------8-8-8-8-8--10-10-10-10-10--10-10-|

|-----------------------------------------------------------------|
|-----------------------------------------------------------------|
|-----------------------------------------------------------------|
|-3-3-3-3-3-3-3-3-3-3-3-3-3-3-3-3-7-7-7-7-7-7-7-7-7-7-7-7-7-7-7-7-|
|-3-3-3-3-3-3-3-3-3-3-3-3-3-3-3-3-7-7-7-7-7-7-7-7-7-7-7-7-7-7-7-7-|
|-3-3-3-3-3-3-3-3-3-3-3-3-3-3-3-3-7-7-7-7-7-7-7-7-7-7-7-7-7-7-7-7-|

|-------------------------------------------------------------------|
|-------------------------------------------------------------------|
|-------------------------------------------------------------------|
|-0-0-0-0-0--7-7-7-7-7--7-7-7-8--8-8-8-8-8-8-8-10-10-10-10-10-10-10-|
|-0-0-0-0-0--7-7-7-7-7--7-7-7-8--8-8-8-8-8-8-8-10-10-10-10-10-10-10-|
|-0-0-0-0-0--7-7-7-7-7--7-7-7-8--8-8-8-8-8-8-8-10-10-10-10-10-10-10-|

Pre-Verse
|---------------------------------------------------------------|
|---------------------------------------------------------------|
|---------------------------------------------------------------|
|-0--2-3-0-2-3-5-0-3-5-7-0-8-8-8-0--2-3-0-2-3-5-0-3-5-7-0-8-8-8-|
|-0--2-3-0-2-3-5-0-3-5-7-0-8-8-8-0--2-3-0-2-3-5-0-3-5-7-0-8-8-8-|
|-0--2-3-0-2-3-5-0-3-5-7-0-8-8-8-0--2-3-0-2-3-5-0-3-5-7-0-8-8-8-|

Verse 2 Bend steadily from 7th fret the 9th fret.  x4
|----------------------------------------------------|
|----------------------------------------------------|
|-------7-7-7-7-7b8-7b8-7b8-7b9-7b9-7b9-7b9----------|
|----------------------------------------------------|
|----------------------------------------------------|
|----------------------------------------------------|

Pre-Chorus 2
|---------------------------------------------------------------------|
|---------------------------------------------------------------------|
|-10-10-10-10-10--10-10-10-10-10--10-10-------------------------------|
|-10-10-10-10-10--10-10-10-10-10--10-10--0--0-0-0-0--0-0-0-0-0--0-0-0-|
|-8--8--8--8--8---8--8--8--8--8---8--8---0--0-0-0-0--0-0-0-0-0--0-0-0-|
|----------------------------------------0--0-0-0-0--0-0-0-0-0--0-0-0-|

|----------------------------------------------------------------------|
|----------------------------------------------------------------------|
|----------------------------------------------------------------------|
|-10--10-10-10-10-10-10-10-10-10-10-10-10-10-10-10--5-5-5-5-5-5-5-5-7\-|
|-10--10-10-10-10-10-10-10-10-10-10-10-10-10-10-10--5-5-5-5-5-5-5-5-7\-|
|-10--10-10-10-10-10-10-10-10-10-10-10-10-10-10-10--5-5-5-5-5-5-5-5-7\-|
                                                    . . . . . . . . .
Chorus 2 
|---------------------------------------------------------------------------|
|---------------------------------------------------------------------------|
|---------------------------------------------------------------------------|
|-3-3-3-3-3-3-3-3-3-3-3-3-3-3-3-3-7-7-7-7-7-7-7-7-7-7-7-7-7-7-7-7-0--0-0--0-|
|-3-3-3-3-3-3-3-3-3-3-3-3-3-3-3-3-7-7-7-7-7-7-7-7-7-7-7-7-7-7-7-7-0--0-0--0-|
|-3-3-3-3-3-3-3-3-3-3-3-3-3-3-3-3-7-7-7-7-7-7-7-7-7-7-7-7-7-7-7-7-0--0-0--0-|
                                                                  .  . .  .
|-------------------------------------------------|
|-------------------------------------------------|
|-10-10-9--7--------------------------------------|
|------------10--8-8-8-8-8--10-10-10-10-10--10-10-|
|----------------8-8-8-8-8--10-10-10-10-10--10-10-|
|----------------8-8-8-8-8--10-10-10-10-10--10-10-|

|-----------------------------------------------------------------|
|-----------------------------------------------------------------|
|-----------------------------------------------------------------|
|-3-3-3-3-3-3-3-3-3-3-3-3-3-3-3-3-7-7-7-7-7-7-7-7-7-7-7-7-7-7-7-7-|
|-3-3-3-3-3-3-3-3-3-3-3-3-3-3-3-3-7-7-7-7-7-7-7-7-7-7-7-7-7-7-7-7-|
|-3-3-3-3-3-3-3-3-3-3-3-3-3-3-3-3-7-7-7-7-7-7-7-7-7-7-7-7-7-7-7-7-|

|-------------------------------------------------------------------|
|-------------------------------------------------------------------|
|-------------------------------------------------------------------|
|-0-0-0-0-0--7-7-7-7-7--7-7-7-8--8-8-8-8-8-8-8-10-10-10-10-10-10-10-|
|-0-0-0-0-0--7-7-7-7-7--7-7-7-8--8-8-8-8-8-8-8-10-10-10-10-10-10-10-|
|-0-0-0-0-0--7-7-7-7-7--7-7-7-8--8-8-8-8-8-8-8-10-10-10-10-10-10-10-|

Solo w/ Wah-Wah (Sorry it's not completely in sync. On each line, both should end 
at the same time.)
Guitar 1
|---------------------------------------------------------------------------|
|-------------------------------------15--17-18-15-17-18-20--18-20-22--22v.-|
|-7--9-10-7-9-10-12--10-12-14--14b15-----------------------19--------19-----|
|------------------12--------12---------------------------------------------|
|---------------------------------------------------------------------------|
|---------------------------------------------------------------------------|

Guitar 2
|------------------------------------------------------------------|
|------------------------------------------------------------------|
|------------------------------------------------------------------|
|-0--2-3-0-2-3-5-0-3-5-7-0-8-8-8-0--2-3-0-2-3-5-0-3-5-7-0-8-8-8-7\-|
|-0--2-3-0-2-3-5-0-3-5-7-0-8-8-8-0--2-3-0-2-3-5-0-3-5-7-0-8-8-8-7\-|
|-0--2-3-0-2-3-5-0-3-5-7-0-8-8-8-0--2-3-0-2-3-5-0-3-5-7-0-8-8-8-7\-|

Guitar 1
|-------------------------------------------18-17-|  
|----------15---18b20r18--18----------------------|
|-12b14--14--14-------------17p15p14--14h17-------|
|-----------------------------------17------------|
|-------------------------------------------------|
|-------------------------------------------------|

Guitar 2
|--------------------------------|
|--------------------------------|
|--------------------------------|
|-0--2-3-0-2-3-5-0-3-5-7-0-8-8-8-|
|-0--2-3-0-2-3-5-0-3-5-7-0-8-8-8-|
|-0--2-3-0-2-3-5-0-3-5-7-0-8-8-8-|

Guitar 1(I couldn't really figure this part out, so this is what I added in.)
|-17-15------------------------------------------------------------------|
|-------18p17p15-18p17p15----17p15---------------------------------------|
|-------------------------15-------17p15-19p17p15-14b15r14---------------|
|----------------------------------------------------------x\\\\\\\\\\\\-|
|----------------------------------------------------------x\\\\\\\\\\\\-|
|----------------------------------------------------------x\\\\\\\\\\\\-|

Guitar 2
|-----------------------------------------|
|-----------------------------------------|
|-----------------------------------------|
|-0--2-3-0-2-3-5-0-3-5-7-0-x\\\\\\\\\\\\\-|
|-0--2-3-0-2-3-5-0-3-5-7-0-x\\\\\\\\\\\\\-|
|-0--2-3-0-2-3-5-0-3-5-7-0-x\\\\\\\\\\\\\-|

Bridge (Repeat this x4, but on the last time, replace the 7\ with an 8.)
|-------------------------------10---------------------------------|
|------------------------------------------------------------------|
|------------------------------------------------------------------|
|-0-2-3-0-2-3-5-0-3-5-7-0-8-8-8-----2-3-0-2-3-5-0-3-5-7-0-8-8-8-7\-|
|------------------------------------------------------------------|
|------------------------------------------------------------------|
  . . . . . . . . . . . . . . .     . . . . . . . . . . . . . . .  
Pre-Chorus 3
|---------------------------------------------------------------------|
|---------------------------------------------------------------------|
|-10-10-10-10-10--10-10-10-10-10--10-10-------------------------------|
|-10-10-10-10-10--10-10-10-10-10--10-10--0--0-0-0-0--0-0-0-0-0--0-0-0-|
|-8--8--8--8--8---8--8--8--8--8---8--8---0--0-0-0-0--0-0-0-0-0--0-0-0-|
|----------------------------------------0--0-0-0-0--0-0-0-0-0--0-0-0-|

|--------------------------------------------------------------------|
|--------------------------------------------------------------------|
|--------------------------------------------------------------------|
|-10--10-10-10-10-10-10-10-10-10-10-10-10-10-10-10--5-5-5-5-5-5-5-7\-|
|-10--10-10-10-10-10-10-10-10-10-10-10-10-10-10-10--5-5-5-5-5-5-5-7\-|
|-10--10-10-10-10-10-10-10-10-10-10-10-10-10-10-10--5-5-5-5-5-5-5-7\-|
                                                    . . . . . . . . 
Chorus 3 (Play this last chorus x2)
|---------------------------------------------------------------------------|
|---------------------------------------------------------------------------|
|---------------------------------------------------------------------------|
|-3-3-3-3-3-3-3-3-3-3-3-3-3-3-3-3-7-7-7-7-7-7-7-7-7-7-7-7-7-7-7-7-0--0-0--0-|
|-3-3-3-3-3-3-3-3-3-3-3-3-3-3-3-3-7-7-7-7-7-7-7-7-7-7-7-7-7-7-7-7-0--0-0--0-|
|-3-3-3-3-3-3-3-3-3-3-3-3-3-3-3-3-7-7-7-7-7-7-7-7-7-7-7-7-7-7-7-7-0--0-0--0-|
                                                                  .  . .  .
|------------------------------------------------|
|------------------------------------------------|
|-10-10-9--7-------------------------------------|
|-----------10--8-8-8-8-8--10-10-10-10-10--10-10-|
|---------------8-8-8-8-8--10-10-10-10-10--10-10-|
|---------------8-8-8-8-8--10-10-10-10-10--10-10-|

|----------------------------------------------------------------------|
|----------------------------------------------------------------------|
|----------------------------------------------------------------------|
|-0-0-0-0-0--7-7-7-7-7--7-7-7-8--8-8-8-8-8-8-8-10-10-10-10-10-10-10-10-|
|-0-0-0-0-0--7-7-7-7-7--7-7-7-8--8-8-8-8-8-8-8-10-10-10-10-10-10-10-10-|
|-0-0-0-0-0--7-7-7-7-7--7-7-7-8--8-8-8-8-8-8-8-10-10-10-10-10-10-10-10-|

Outro (This part is played acoustically)
|--------------------------5---5--5--5---5--5--5----10--10-10-10--10-10-10-|
|--------------------------5---5--5--5---5--5--5----10--10-10-10--10-10-10-|
|--------------------------5---5--5--5---5--5--5----10--10-10-10--10-10-10-|
|-3---3--3--3---3--3--3----3---3--3--3---3--3--3----8---8--8--8---8--8--8--|
|-3---3--3--3---3--3--3----3---3--3--3---3--3--3----8---8--8--8---8--8--8--|
|-3---3--3--3---3--3--3----3---3--3--3---3--3--3----8---8--8--8---8--8--8--|
                                  x2
|----------------------------------|--------------|  /
|----------------------------------|--------------| /
|----------------------------------|-----------10-|/
|-8---8--8---10---10--10---10---10-|-8---8--8--8--|------Do this 2nd time w/o
|-8---8--8---10---10--10---10---10-|-8---8--8--8--|\      the 10's
|-8---8--8---10---10--10---10---10-|-8---8--8--8--| \
                                                     \                
Enjoy!                           
Добавлено: 14.07.2012
Другие материалы по этой песне:
  • Аккорды и текст

Страница создана 14.07.2012
http://primanota.ru/sick-puppies/shouldve-known-better-chords.htm
Привет, Гость.
Предлагаем пройти революционный курс по гитаре.
Подарок от PrimaNota.Ru, забирай!